Cifra Club

Desapego

Moptop

Cifrado: Principal (guitarra y guitarra eléctrica)
tono: G
(intro)

E|----------------------------------------------|
B|-------------3-5------------------------------|
G|-----0-2-4-------4-0-2-4----------------------|
D|-2-4-------5-------------2-5-4-0---2----------|
A|---------------------------------2------------|
E|----------------------------------------------|

E|----------------------------------------------|
B|-------------3-5------------------------------|
G|-----0-2-4-------4-2-0-2-0-4------------------|
D|-2-4-------5----------------------------------|
A|----------------------------------------------|
E|----------------------------------------------|

(riff 1)
E|-----------|
B|-----------|
G|-------4---|
D|-2-4-5-----|
A|---------3-|
E|-----------|

(riff 2)
E|-------------------------------|
B|-------------------------------|
G|-------2-4----4-2-2--4-2-------|
D|-2-4-5------5------------5-4-2-|
A|-------------------------------|
E|-------------------------------|

Em
Fui levantar, não achei
Um bom motivo pra acordar
Tá tudo bem, não, não há
Com o que se preocupar
            Am
É que eu me encontrei com o nada
                       B7
E acho que meu lugar é aqui

Em
Pra que pular, se não sei
O que quero alcançar
Pra que vencer, se não sei
Quem eu quero derrotar
       Am
Eu vou descansar um instante
                       B7
Até eu reencontrar meu fim


Em                 (riff 1)
Eu não vou mais correr
C                (riff 2)
Não vou mais correr
G                      D       B7
Vou ficar parado com você, meu bem
Em                     (riff 1)
Eu não vou mais correr
C                (riff 2)
Nada é pra valer
G                      D       B7
Vou ficar parado com você, meu bem

Em
Fui levantar, não achei
Um bom motivo pra acordar
Tá tudo bem, não, não há
Com o que se preocupar
            Am
É que eu me encontrei com o nada
                        B7
E acho que meu lugar é aqui

Em
Pra que cavar, se não sei
O que quero encontrar
Pra que correr, se não sei
Bem onde quero chegar
        Am
Eu vou desligar um instante
                       B7
Até eu reencontrar meu fim

           Am
Não vou tentar
              Em
Não vou insistir
          D
Não vou lutar
         G
Já me rendi
        C             Am             B7
Meu desapego é meu sossego, meu botequim
00:00 / 00:00
Otros videos de esta canción
Repetir
Otros videos de esta canción
Composición de Gabriel Marques
Colaboración y revisión:
  • Rodrigo Queiroz
  • Juliana Rufine
  • Francisco Oliveira
41 vistas
    • ½ Tono
    • A
    • Bb
    • B
    • C
    • Db
    • D
    • Eb
    • E
    • F
    • F#
    • G
    • Ab
  • Agregar a la lista

    0 comentarios

    Ver todos los comentarios
    00:00 / 00:00
    OK