Cifra Club

In Through The Night

Moptop

Cifrado: Principal (guitarra y guitarra eléctrica)
tono: G
Intro: E  A  D  G  C  F  B7
E|------------------------------|------------------------------|
B|------------------------------|------------------------------|
G|------------------------------|------------------------------|
D|---2--2--0-----0-----2--2--0--|---2--2--0-----0-----2--2--0--|
A|------------2-----------------|------------2-----------------|
E|0-----------------0-----------|0-----------------0-----------|

E|------------------------------|------------------------------|
B|------------------------------|------------------------------|
G|---2--2--0-----0-----2--2--0--|---2--2--0-----0-----2--2--0--|
D|------------2-----------------|------------2-----------------|
A|0-----------------0-----------|0-----------------0-----------|
E|------------------------------|------------------------------|

                               OU

E|------------------------------|------------------------------|
B|------------------------------|------------------------------|
G|------------------------------|------------------------------|
D|------------------------------|------------------------------|
A|----7-7-5-----5-----7--7-5----|----7-7-5-----5-----7--7-5----|
E|-0---------7-----0------------|-0---------7-----0------------|

E|------------------------------|------------------------------|
B|------------------------------|------------------------------|
G|------------------------------|------------------------------|
D|----7-7-5-----5-----7--7-5----|----7-7-5-----5-----7--7-5----|
A|-0---------7-----0------------|-0---------7-----0------------|
E|------------------------------|------------------------------|

Em
In every moment she makes me feel
In every moment she complains out there

C
I know exactly what she wants,
B7
I know exactly what she wants,
                           Em
I know exactly what she wants.

Em
In every ??? she makes me think
In every ??? she's insane out there

C
I know exactly what she wants,
B7
I know exactly what she wants,
                           Em
I know exactly what she wants.

    Am               D                       G
In through the night, my girl reminds me why
       C              F
I love her until the end
  B7                  E
I love her until I die
         Am                 D                              G
In through the night, my girl, she makes me feel so right.
 C   C6   C
I know exactly what she wants,
    B7                   Em
I know exactly what she wants.

Em
In every moment she makes me feel
In every moment she complains out there

C
I know exactly what she wants,
B7
I know exactly what she wants,
                           Em
I know exactly what she wants.

Em
In every ??? she makes me think
In every ??? she's insane out there

C
I know exactly what she wants,
B7                                   Em
She wants,I know exactly what she wants.

    Am               D                       G
In through the night, my girl reminds me why
       C              F
I love her until the end
  B7                  E
I love her until I die
         Am                 D                              G
In through the night, my girl, she makes me feel so right.
 C   C6   C
I know exactly what she wants,
    B7                   Em
I know exactly what she wants, yeah!
00:00 / 00:00
Otros videos de esta canción
Repetir
Otros videos de esta canción
Compositor no encontrado.
Colaboración y revisión:
  • Ivan Costa
15 vistas
    • ½ Tono
    • A
    • Bb
    • B
    • C
    • Db
    • D
    • Eb
    • E
    • F
    • F#
    • G
    • Ab
  • Agregar a la lista

    0 comentarios

    Ver todos los comentarios

    ¿Lograste tocar?

    0 Tocaron 0 Aún no

    ¡Graba un video tocando In Through The Night y envíanoslo!

    00:00 / 00:00
    OK