Cifra Club

Melhor Nem Vir

Moptop

Cifrado: Principal (guitarra y guitarra eléctrica)
tono: G
INTRO-----> Repete o solo com a base 4x

Guita base: Em, C, Am, B
Guita Solo
B|--------------------------
G|--------------------------
D|---------------------4-5--
A|-7--------------6-7-------
E|---8----5-7-8-5-----------
______________________________________________________________
VERSOS

solo 1 (feito no final dos versos)
B|--------------------------
G|--------------------------
D|-------------------4-5--
A|--------------6-7-------
E|-----5-7-8-5-----------

(Em, C, Am, B)
Eu fiz de tudo pra te provocar (solo 1)
Pensei que fosse te acender (solo 1)

(D,G,C,Bm)
Mas você acha que é normal não ser você... Oh!

B|-----------------------------
G|-----------------------------
D|-----------------------------
A|-----------------------------
E|--7-5-7---7-7-5-7--7-7-5-7---

B|------------------------------------------
G|------------------------------------------
D|--9(b)---9-7------------------------9-7-5-
A|--------------10-9-10---7-----------------
E|------------------------------------------

(Em, C, Am, B)
Daonde vem tanta indisposição (solo 1)
Custa você se divertir?

(D, G, C, Bm)
Mas se quiser pode ficar, eu vou sair

B|-----------------------------
G|-----------------------------
D|-----------------------------
A|-----------------------------
E|--7-5-7---7-7-5-7--7-7-5-7---

____________________________________________________________________________
REFRÃO 1
(Em D C)
Se for pra se guardar melhor então nem vir
Se for pra se fechar melhor então nem ir

____________________________________________________________________________

VERSOS
 
(Intro)

(Em, C, Am, B)
Eu fiz de tudo pra te corromper (solo 1)
Não achei fosse resistir (solo1)

(D, G, C, Bm)
Prefere achar que é normal não ser feliz

B|-----------------------------
G|-----------------------------
D|-----------------------------
A|-----------------------------
E|--7-5-7---7-7-5-7--7-7-5-7---

___________________________________________________________________________
REFRÃO 2
(Em D C)
Se for pra se guardar melhor então nem vir
Se for pra se fechar melhor então nem ir
Se for pra se guardar melhor então nem vir
Se for pra se fechar melhor então nem ir

Em
Se for fingir
C
Se for julgar
Am
Se for medir
G F#m
Se for pensar

C              D 
Quero ver seu bem
G             F#m
Quero ver seu mal
C             D          G
Quero ver se tem alguém ai atrás
00:00 / 00:00
Otros videos de esta canción
Repetir
Otros videos de esta canción
Composición de Gabriel Marques
Colaboración y revisión:
  • Olívia Bezerra
26 vistas
    • ½ Tono
    • A
    • Bb
    • B
    • C
    • Db
    • D
    • Eb
    • E
    • F
    • F#
    • G
    • Ab
  • Agregar a la lista

    0 comentarios

    Ver todos los comentarios
    00:00 / 00:00
    OK