Cifra Club

Moonrock

Moptop

Cifrado: Principal (guitarra y guitarra eléctrica)
tono: Bb
INTRO

GUITARRA 1 enta sozinha:
B|---------------------------
G|----------2-1--------------
D|-4-------------2--4-4-------
A|--------------------------
E|---2-4-5--------------2-2--

B|---------------------------
G|----------2-1--------------
D|-4------------2--4-4-------
A|---------------------------
E|---2-4-5-------------------

GUITARRA 2 acompanha com base: 

Gm                                 Eb
B|---------------------------   ---------------------------
G|----------2-1--------------   ----------2-1--------------
D|-4------------2--4-4-------   -4------------2--4-4-------
A|---------------------------   ---------------------------
E|---2-4-5--------------2-2--   ---2-4-5--------------2-2--

Cm                                  D
B|---------------------------   ---------------------------
G|-2-1-----------------------   ---------------------------
D|-------4-2---2-4-4---------   ---3-2-2-2---11-9-7-6------
A|-----------4---------------   ---------------------------
E|--------------------2-2----   ---------------------------
                                                                       
VERSOS

GUITARRA 1 sola durante todos os versos:
B|----------------------------------------------------------------------
G|----------------------------------------------------------------------
D|----------------------------------------------------------------------
A|-5----5-7-8-7-5-------5-7-8-7-2-------5-7-8-7-7-------12-10-8-7-5-----
E|----------------------------------------------------------------------

GUITARRA 2 toca a base
(Gm, Eb, Cm, D)

Se eu disser não da mais
Você escuta ou só finge escutar?
Se eu quiser me largar
Você vem junto ou só para pra olhar
Olhe bem pra mim eu não to legal
Tentei de tudo eu não consigo parar
Se quiser me acertar
A hora é essa eu não vou revidar
                                                                         
PRÉ-REFRÃO

A|--5(9x)---4(9x)--------------

(Eb, D)
Só que dessa vez
Você quer gritar
Enche o peito e diz
Que não da mais, oh não!
Me deixa ser em paz

                                                                         
REFRÃO:

Bb   Eb    Cm   F
Mas quem se importa
Ninguém se importa
Fazem de conta 
Que querem o seu melhor
                                                               

VERSO

GUITARRA 1 sola durante todos os versos:
B|----------------------------------------------------------------------
G|----------------------------------------------------------------------
D|----------------------------------------------------------------------
A|-5----5-7-8-7-5-------5-7-8-7-2-------5-7-8-7-7-------12-10-8-7-5-----
E|----------------------------------------------------------------------


GUITARRA 2 toca a base
(Gm, Eb, Cm, D)

Se disser que não da mais
Será que eu escuto ou só finjo escutar
Se quiser se jogar
Será que eu pulo ou só paro para olhar
Mas não fique assim eu falei demais
Se eu pudesse eu tentaria mudar
Se quiser me acertar
A hora é essa eu não vou revidar 

PRÉ-REFRÃO

A|--5(9x)---4(9x)--------------

(Eb, D)
Só que dessa vez
Você quer gritar
Enche o peito e diz
Que não da mais, oh não!
     F        F#
Me deixa ser em paz

B|---------------------                
G|-----------2-1-------        
D|-4--------------2--4-    6x  
A|---------4-----------
E|---2-4-5-------------

Gm Gm Gm Gm
B|--------------------------------------
G|--------------------------------------
D|------4-4--6-6-7-7-------4-4--6-6-7-7-
A|-5-5----------------5-5----------------
E|--------------------------------------

Gm Gm Gm Gm
B|--------------------------------------
G|--------------------------------------
D|------4-4--6-6-7-7-------4-4--6-6-7-7-
A|-5-5----------------5-5----------------
E|--------------------------------------

B|--------------------------------------
G|--------------------------------------
D|------4-4--6-6-7-7-------4-4--6-6-7-7-
A|-4-4----------------4-4----------------
E|--------------------------------------

B|----------------------------------------
G|----------------------------------------
D|------4-4--6-6-7-7--------6-6-7-7-9-9---
A|-5-5-----------------7-7--------------7-
E|----------------------------------------

(silêncio)
                                             
REFRÃO 2x

Bb   Eb    Cm   F
Mas quem se importa
Ninguém se importa
Fazem de conta 
Que querem o seu melhor

GUITARRA 2 acompanha com base: 

Gm                                 Eb
B|------------------------------------------------------
G|----------2-1------------------------2-1--------------
D|-4------------2--4-4--------4------------2--4-4-------
A|------------------------------------------------------
E|---2-4-5--------------2-2-----2-4-5--------------2-2--

Cm                                  D
B|-------------------------------------------------------------------------
G|-2-1---------------------------------------------------------------------
D|-------4-2---2-4-4------------3-2-2-2---11-9-7-6---11-9-7-6---11-9-7-6-4-
A|-----------4-------------------------------------------------------------
E|--------------------2-2--------------------------------------------------
00:00 / 00:00
Otros videos de esta canción
Repetir
Otros videos de esta canción
Composición de Gabriel Marques
Colaboración y revisión:
  • Vitor Medeiros
  • Olívia Bezerra
54 vistas
    • ½ Tono
    • A
    • Bb
    • B
    • C
    • Db
    • D
    • Eb
    • E
    • F
    • F#
    • G
    • Ab
  • Agregar a la lista

    0 comentarios

    Ver todos los comentarios
    00:00 / 00:00
    OK