Cifra Club

Sempre Igual

Moptop

Cifrado: Principal (guitarra y guitarra eléctrica)
tono: C
Intro: E / A / D / G / C / F / B7

e|------------------------------|------------------------------|
B|------------------------------|------------------------------|
G|------------------------------|------------------------------|
D|---2--2--0-----0-----2--2--0--|---2--2--0-----0-----2--2--0--|
A|------------2-----------------|------------2-----------------|
E|0-----------------0-----------|0-----------------0-----------|

e|------------------------------|------------------------------|
B|------------------------------|------------------------------|
G|---2--2--0-----0-----2--2--0--|---2--2--0-----0-----2--2--0--|
D|------------2-----------------|------------2-----------------|
A|0-----------------0-----------|0-----------------0-----------|
E|------------------------------|------------------------------|

Em
Todo dia ela aparece sem avisar
Me agarra, diz que nunca vai largar

                 C  B7
Tudo é sempre igual
                    Em
Tudo é sempre igual

Em
Todo dia eu ensaio uma conclusão
Ela vem e me entope de paixão
             C    B7
Mas tudo é igual
                    Em
Tudo é sempre igual

          Am    D                    G
Não posso mais, não dá mais pra levar
    C        F      B7              E
Eu saio por ai pensando em não voltar
             Am      D        G   C C6 C
Mas volto atrás com medo de recomeçar 
              C
Mas é tudo igual
            B7
É tão igual
                   Em
Ela é sempre igual

E todo dia ela me pede pra escolher
Entre ela e o jogo na TV

Tudo é sempre igual
Ela é sempre igual

E quando finalmente enxerga a minha apreensão
Me beija com urgência e aflição

Mas tudo é igual
Tudo é sempre igual

Não posso mais, não dá mais levar
Eu saio por aí pensando em não voltar
Mas volto atrás, com medo de recomeçar

Mas tudo é igual
É tão igual
Ela é sempre igual
00:00 / 00:00
Otros videos de esta canción
Repetir
Otros videos de esta canción
Composición de Gabriel Marques
Colaboración y revisión:
  • Caio Ferreira
  • Edson Souza
78 vistas
    • ½ Tono
    • A
    • Bb
    • B
    • C
    • Db
    • D
    • Eb
    • E
    • F
    • F#
    • G
    • Ab
  • Agregar a la lista

    0 comentarios

    Ver todos los comentarios
    00:00 / 00:00
    OK