Cifra Club

Tão Certo

Moptop

Cifrado: Principal (guitarra y guitarra eléctrica)
tono: G
Intro.: G / G / D

G                            D
A conheci e tudo parecia tão certo
   C G         D C
Oh não eu menti
G                                D
Mas resolvi agora sou um cara correto
    C G        D 
Sei não eu fugi

                D
Mas tudo é tão sério
           C
A gente é tão sério
            G
Pra que fingir
             D
Que tudo tá certo
           C
A gente é tão sério

Iêê!

G                                    D
Aquela ali que finge ser do tipo inocente
    C G       D  C
Sei não só finge
G                                 D
E eu aqui fingindo ser do tipo decente
   C G        D 
Oh não eu fugi

                D
Mas tudo é tão sério
           C
A gente é tão sério
            G
Pra que fingir
             D
Que tudo tá certo
           C
A gente é tão sério

Iêê!

SOLO
G / D / Am / C

Solo:
e|----8-10----8-10----------8-10----8-10----|
B|-12------12------12----12------12------12-|
G|------------------------------------------|
D|------------------------------------------|
A|------------------------------------------|
E|------------------------------------------|

e|-15-14-------15-15-15-14------------------------------------------------|
B|-------15/10-------------15/10--12/10-8-7-5-3/8-7-5-3-1-0---0-1-3-5-7-8-|
G|------------------------------------------------------------------------|
A|------------------------------------------------------------------------|
D|------------------------------------------------------------------------|
E|------------------------------------------------------------------------|

Ainda não decobri o tune certo da guitarra, ouçam a musica e testem aí.

G / D / Am / C / D / G

A conheci e tudo parecia perfeito
Oh não eu menti
Meu medo é que você acha que eu não tenho mais jeito
Mas não eu tenho sim 

G / D / Am / C
G / D / Am / C / D / G / D
00:00 / 00:00
Otros videos de esta canción
Repetir
Otros videos de esta canción
Composición de Gabriel Marques
Colaboración y revisión:
  • Faboi =)
  • Francisco Oliveira
55 vistas
    • ½ Tono
    • A
    • Bb
    • B
    • C
    • Db
    • D
    • Eb
    • E
    • F
    • F#
    • G
    • Ab
  • Agregar a la lista

    0 comentarios

    Ver todos los comentarios
    00:00 / 00:00
    OK