Cifra Club

Tempos Depois

Moptop

Cifrado: Principal (guitarra y guitarra eléctrica)
tono: D
intr:
E|-------------------------------7-7-7-5-5-5---7-7-7--5-5-5---
B|--7-7-7-5-5-5---7-7-7-5-5-5---------------------------------
G|--------------7-------------7--------------7--------------7-
entra:
E|-10~10~-7~7~
B|-10~10~-8~8~
G|-11~11~-7~7~

Riff para acompanhar:
E|-------------------------------------------------------------------------------------------
B|-8-8-8-7-7-7-5-8-8-8-7-7-7-5-8-8-8-7-7-7-8-8-8/10-10-10-8-8-8-7-7-7-8-8-8/10-10-10--8-8-8-7
G|-------------------------------------------------------------------------------------------

E|-----------------------------------------------------------------------/
B|-----------------------------------------------------------------------/
G|-7/9-9-9-7-7--6--7/9-9-9-7-7-6-7/9-9-9-7-7-7-7-9-9-9-11-11-11-9-9-9-7.-/

D                             G
 Tentar lembrar vou tentar despedaçar
D                         G
 Amor em vão esperar e se afastar

Em          D
 Melhor não entender   riff: o decima! 
Em           D              
 Melhor me embebedar        
Em               G
 Por que me sinto longe assim?

refrão:
         D            Bm
Embora nada mudou sozinho eu sei     E|-10...09...7.../
G                                     B|-10...10...8.../  2X
 Quanto amor lhe dei                  G|-11...11...7.../
           D              Bm               
 Mas se tentar é saber eu nada sei 
G
 Esquecer alguém
solo:
E|-5--5--5--------------------------------------------------------------------------
B|-8b-8b-8b--8b-8-6--6~--6--8b-8-6---6~--8b-8-6---6~--6--8b-8b-6-8b-8b-6-8b-8b6...--
G|-----------------7---7-----------7---7--------7---7-------------------------------

E|---------------------------9full-10full-12full------------------------------------/
B|-8full-10full-10full-13full-------------------------------------------------------/

pronto; repete os mesmos acordes!

 Tentar voltar vou tentar desconversar
 Amor em vão esperar e me afastar

 Melhor não entender
 Melhor me embebedar
 Por que me sinto estranho assim?

 Embora nada mudou sozinho eu sei
 Quanto amor lhe dei
 Mas se tentar é saber eu nada sei
 Esquecer alguém
00:00 / 00:00
Otros videos de esta canción
Repetir
Otros videos de esta canción
Composición de Gabriel Marques
Colaboración y revisión:
  • Felipe Andrade
  • angelo galuccio
45 vistas
    • ½ Tono
    • A
    • Bb
    • B
    • C
    • Db
    • D
    • Eb
    • E
    • F
    • F#
    • G
    • Ab
  • Agregar a la lista

    0 comentarios

    Ver todos los comentarios
    00:00 / 00:00
    OK