Cifra Club

Di Que No Te Vas

Morat

Cifrado: Principal (guitarra y guitarra eléctrica)
tono: C
[Intro] C

E|------------------------------------------|
B|-1-----1------1-----1------1-----1--------|
G|---0-----0------0-----0------0-----0------|
D|-----2-----2------2-----2------2-----2----|
A|-3------------3------------3--------------|
E|------------------------------------------|

E|------------------------------------------|
B|-1----------------------------------------|
G|-------0----------------------------------|
D|---0h2---0h2------------------------------|
A|-3----------------------------------------|
E|------------------------------------------|

[Primeira Parte]

   C                         Em
E|------------------------------------------|
B|-1-----1------1-----1------0-----0--------|
G|---0-----0------0-----0------0-----0------|
D|-----2-----2------2-----2------2-----2----|
A|-3------------3---------------------------|
E|---------------------------0--------------|

                F9           Fm
E|--------------3-----3------1-----1--------|
B|-0-----0--------1-----1------1-----1------|
G|---0-----0--------2-----2------1-----1----|
D|-----2-----2--3------------3--------------|
A|------------------------------------------|
E|-0----------------------------------------|

   C            G/B          Am
E|-0-----0----------------------------------|
B|---1-----1----3-----0h1-0--1-----1--------|
G|-----0-----0----0------------2-----2------|
D|------------------0------------2-----2----|
A|-3------------2------------0--------------|
E|------------------------------------------|

               F9
E|-0-----0------3-----3------3-----0h1-0----|
B|---1-----1------1-----1------1------------|
G|-----2-----2------2-----2------2----------|
D|--------------3------------3--------------|
A|-0----------------------------------------|
E|------------------------------------------|

   C
E|-0-----0----------------------------------|
B|---1-----1----1-----1---------------------|
G|-----0-----0----0-----0-------------------|
D|------------------2-----2-----------------|
A|-3------------3---------------------------|
E|------------------------------------------|

   G
E|------------------------------------------|
B|-3-----3------3-----0h1-0-----------------|
G|---0-----0------0-------------------------|
D|-----0-----0------0-----------------------|
A|------------------------------------------|
E|-3------------3---------------------------|

    C                     Em
Me ha costado tanto robarme tu corazón
         F9         Fm               C  G/B
Que no pienso devolverlo en un buen rato
         Am                          F9
Antes de irte ponlo en hielo dentro de cualquier cajón
           C                      G
Que si se pudre ya no podre perdonarlo

     C                      Em
Nos hizo falta tiempo pero nos sobro el sudor
   F9              Fm           C   G/B
Aquel que yo escurri de tus mentiras
     Am                       F9
Como esa de que te ibas a quedar toda la vida
     C                        G
O la otra que no habría despedida

[Pré-Refrão]

      Am  Em
Y no voy
      F9                       C   G/B
A quedarme con los brazos cruzados
         Am  Em
Pero el tiempo
         F9                  G
No te quiere dejar ver el pasado

[Refrão]

               Am
Mira que no puedo mas
                F
Que mi vida es tuya
           C
Y no cabe duda
              G
No voy a olvidar

              Am
Mira que no puedo mas
                 F
Ya no estoy fingiendo
                 C
Y aunque sea mentira
              G
Di que no te vas
              C
Di que no te vas

[Riff] 

   C
E|------------------------------------------|
B|-1-----1------1-----1------1-----1--------|
G|---0-----0------0-----0------0-----0------|
D|-----2-----2------2-----2------2-----2----|
A|-3------------3------------3--------------|
E|------------------------------------------|

E|------------------------------------------|
B|-1----------------------------------------|
G|-------0----------------------------------|
D|---0h2---0h2------------------------------|
A|-3----------------------------------------|
E|------------------------------------------|

[Primeira Parte]

   C                         Em
E|------------------------------------------|
B|-1-----1------1-----1------0-----0--------|
G|---0-----0------0-----0------0-----0------|
D|-----2-----2------2-----2------2-----2----|
A|-3------------3---------------------------|
E|---------------------------0--------------|

                F9           Fm
E|--------------3-----3------1-----1--------|
B|-0-----0--------1-----1------1-----1------|
G|---0-----0--------2-----2------1-----1----|
D|-----2-----2--3------------3--------------|
A|------------------------------------------|
E|-0----------------------------------------|

   C            G/B          Am
E|-0-----0----------------------------------|
B|---1-----1----3-----0h1-0--1-----1--------|
G|-----0-----0----0------------2-----2------|
D|------------------0------------2-----2----|
A|-3------------2------------0--------------|
E|------------------------------------------|

               F9
E|-0-----0------3-----3------3-----0h1-0----|
B|---1-----1------1-----1------1------------|
G|-----2-----2------2-----2------2----------|
D|--------------3------------3--------------|
A|-0----------------------------------------|
E|------------------------------------------|

   C
E|-0-----0----------------------------------|
B|---1-----1----1-----1---------------------|
G|-----0-----0----0-----0-------------------|
D|------------------2-----2-----------------|
A|-3------------3---------------------------|
E|------------------------------------------|

   G
E|------------------------------------------|
B|-3-----3------3-----0h1-0-----------------|
G|---0-----0------0-------------------------|
D|-----0-----0------0-----------------------|
A|------------------------------------------|
E|-3------------3---------------------------|
 
 C                              Em
Lo que me dejaste y lo que el viento se llevo
     F            Fm          C    G/B
Me duele y ya no se como ignorarlo
          Am                             F
Porfavor dime lo que haz hecho con este pobre corazon
          C                     G
Haber si poco a poco puedo repararlo

[Pré-Refrão]

      Am  Em
Y no voy
      F9                       C   G/B
A quedarme con los brazos cruzados
         Am  Em
Pero el tiempo
         F9                  G
No te quiere dejar ver el pasado

[Refrão]

              Am
Mira que no puedo mas
                F
Que mi vida es tuya
           C
Y no cabe duda
              G
No voy a olvidar

              Am
Mira que no puedo mas
                 F
Ya no estoy fingiendo
                 C
Y aunque sea mentira
              G
Di que no te vas
              
Di que no te vas

[Ponte]

Am
  Oh oh oh
F
  Oh oh oh
C
  Oh oh oh
G
  Oh oh oh
Am
  Oh oh oh
F
  Oh oh oh
C          G
  Oh oh oh oh

[Pré-Refrão]

      Am   Em
Y no voy 
       F                        C    G/B
A aceptar que ya no quieras quedarte
         Am  Em
Pero el tiempo
       F                     G
No podra enseñarme como olvidarte

[Refrão]

              Am
Mira que no puedo mas
                F
Que mi vida es tuya
           C
Y no cabe duda
              G
No voy a olvidar

              Am
Mira que no puedo mas
                 F
Ya no estoy fingiendo
                 C
Y aunque sea mentira
              G
Di que no te vas
              
Di que no te vas

Am
  Oh oh oh
F
  Oh oh oh
C
  Oh oh oh
G
  Oh oh oh
Am
  Oh oh oh
F
  Oh oh oh
C          G
  Oh oh oh oh

              C
Di que no te vas di que no te vas
00:00 / 00:00
Otros videos de esta canción
Repetir
Otros videos de esta canción
Composición de Alejandro Posada / Juan Pablo Isaza Pineros / Juan Pablo Villamil Cortes / Mauricio Rengifo / Simón Vargas
Colaboración y revisión:
  • Thiago Almeida
  • Erick TVErickCN
4.069 vistas
    • ½ Tono
    • A
    • Bb
    • B
    • C
    • Db
    • D
    • Eb
    • E
    • F
    • F#
    • G
    • Ab
  • Agregar a la lista

    0 comentarios

    Ver todos los comentarios

    ¿Lograste tocar?

    1 Tocaron 1 Aún no

    ¡Graba un video tocando Di Que No Te Vas y envíanoslo!

    00:00 / 00:00
    OK