Cifra Club

Qué Ganas?

Morat

Cifrado: Principal (guitarra y guitarra eléctrica)
tono: A
E|-------------------------------------|
B|-----------2---2---------------2-----|
G|---2---2h4---4---------2---2h4---4-2-|
D|-2---2---------------2---2-----------|
A|-------------------------------------|
E|-------------------------------------|

E|-------------------------------------|
B|-----------2-------------------2-----|
G|---2---2h4---4-2-------2---2h4---4-2-|
D|-4---4---------------4---4-----------|
A|-------------------------------------|
E|-------------------------------------|

E|---------------------------------|
B|-----------2---------------------|
G|---2---2h4---4-2-------2-1---2-1-|
D|-2---2---------------2-----2-----|
A|---------------------------------|
E|---------------------------------|

INTRO
              A               E 
E|-----------------------0----------0-|
B|-3p2---------------2-----0h2------0-|
G|-----2h4---2---2h4---4--------2---1-|
D|---------2---2------------------4-2-|
A|----------------------------------2-|
E|----------------------------------0-|

            A 
 Cuando te vi
          E                                    F#m 
 Sólo podía pensar en todo el tiempo que perdí
           D                                   A 
 Porque mi vida cambió de repente y lo entendí
              E 
 Cuando te vi


             A 
 Dijiste adiós
              E                                   F#m 
 Y antes de hablar, tus ojos ya gritaban "terminó"
              D                                       A 
 Y aunque por ti haya puesto todo en juego no te alcanzó
            E 
 Dijiste adiós


      D             F#m 
 Pero no me busques más
         D                             E 
 Y no pretendas que eres fácil de olvidar


                  A                 E            F#m 
 Qué ganas con llegar, si igual te irás con el viento
E                D                A            E 
 Qué ganas con colarte siempre en cada canción
                 A           E            F#m 
 Qué ganas con sacarme la verdad cuando miento
E                D            A          E 
 Y fallo en el intento de ocultarte mi amor
                F#m                E 
 Yo pierdo la cabeza, pierdo el sueño
                A                F#m 
 Yo pierdo la razón, pierdo mi voz
 E              D            E 
 Pero no sé qué ganas con robarme el corazón


E|---------------0--------0-|
B|-----------2-----0h2----0-|
G|---2---2h4---4-------2--1-|
D|-2---2------------------2-|
A|------------------------2-|
E|------------------------0-|


             A 
 Fuimos los dos
               E                              F#m 
 Los que, de a ratos, confundían locura con amor
            D                                       A 
 Y no es tu culpa, si eso de estar locos, no funcionó
             E 
 Fuimos los dos


      D             F#m 
 Pero no me busques más
         D                             E 
 Y no pretendas que eres fácil de olvidar


                  A                 E            F#m 
 Qué ganas con llegar, si igual te irás con el viento
E                D                A            E 
 Qué ganas con colarte siempre en cada canción
                 A           E            F#m 
 Qué ganas con sacarme la verdad cuando miento
E                D            A          E 
 Y fallo en el intento de ocultarte mi amor
                F#m                E 
 Yo pierdo la cabeza, pierdo el sueño
                A                F#m 
 Yo pierdo la razón, pierdo mi voz
 E              D            E 
 Pero no sé qué ganas con robarme el corazón


D                                F#m    E 
 Te vas y no das tiempo de extrañarte
A                                E 
 Y ocultar tu intención de regresar
D                                   F#m 
 Yo siempre he sido un blanco vulnerable
                  E      A                        E 
 Y nunca vi que eras culpable de saber donde apuntar


                  A                 E            F#m 
 Qué ganas con llegar, si igual te irás con el viento
E                D                A            E 
 Qué ganas con colarte siempre en cada canción
                 A           E            F#m 
 Qué ganas con sacarme la verdad cuando miento
E                D            A          E 
 Y fallo en el intento de ocultarte mi amor
                F#m                E 
 Yo pierdo la cabeza, pierdo el sueño
                A                F#m 
 Yo pierdo la razón, pierdo mi voz
 E              D            E            A       D 
 Pero no sé qué ganas con robarme el corazón

E|---------------0-------------------|
B|-----------2-------------------2---|
G|---2---2h4---4---------2---2h4---4-|
D|-2---2---------------4---4---------|
A|-----------------------------------|
E|-----------------------------------|

                F#m                      E 
 Pero no sé qué ganas con robarme el corazón

E|-------------------------|
B|-----------2-------------|
G|---2---2h4---4-------2-1-|
D|-4---4-------------2-----|
A|-------------------------|
E|-------------------------|


Círculos de Acordes
   Normal: A   E   F#m   D   A   E 
   Pre coro: D   F#m   D   E 
   Coro: A   E   F#m   E   D   A   E 
   Puente: D   F#m   E   A   E 
00:00 / 00:00
Otros videos de esta canción
Repetir
Otros videos de esta canción
Composición de Juan Pablo Isaza Pineros / Juan Pablo Villamil / Martin Vargas Morales / Simon Vargas Morales / Susana Isaza Piñeros
352 vistas
    • ½ Tono
    • A
    • Bb
    • B
    • C
    • Db
    • D
    • Eb
    • E
    • F
    • F#
    • G
    • Ab
  • Agregar a la lista

    0 comentarios

    Ver todos los comentarios

    ¿Lograste tocar?

    0 Tocaron 0 Aún no

    ¡Graba un video tocando Qué Ganas? y envíanoslo!

    00:00 / 00:00
    OK