Cifra Club

Burning Benches

Morning Runner

Cifrado: Principal (guitarra y guitarra eléctrica)
tono: A
|--4-4-4-4-4-4-4-4-4-4-4-5-5-4-4-4-2-2-2-2-2-2-2-2-4-4-4-5-5-4-4-4-----------------4-4-4-|
|--5-5-5-5-5-5-5-5-----------------4-4-4-4-4-4-4-4-----------------5-5-5-5-5-5-5-5-------|
|------------------------------------------------------------------6-6-6-6-6-6-6-6-------|
|----------------------------------------------------------------------------------------|
|----------------------------------------------------------------------------------------|
|----------------------------------------------------------------------------------------|

|--5-5-4-4-4-------------------4-4-4-5-5-4-4-4-----------------------|
|------------5-5-5-5-5-5-5-5-----------------------------------------|
|------------4-4-4-4-4-4-4-4-----------------------------------------|
|--------------------------------------------- repeat as untill 2:22-| then....
|--------------------------------------------------------------------|
|--------------------------------------------------------------------|

|----------------------------------|
|--5-5-5-5-5-5-5-5-5-5-5-5-5-5-5-5-|
|----------------------------------|
|----------------------------------|
|----------------------------------|
|----------------------------------|

Guitar 1 (lead)
|----------------                  |-5--5-4-5-4-5-7----------------|
|-5-4-5-4-5-4-5-7                  |-------------------------------|
|----------------   (x4)till 2:39  |---------------- (x2)till 2:45-|
|----------------                  |-------------------------------|
|----------------                  |-------------------------------|
|----------------                  |-------------------------------|

|--7-7-7-7-7-----------------------------------------------------|
|------------9-9-9-7-7-7-7-7-5-5-5-------------------------------|
|----------------------------------------------------------------|
|----------------------------------------------------------------|        
|---------------------------------        then play... (at 3:14--|
|----------------------------------------------------------------|
then repeat from beginning of lead,

|--5-5-5-5-5-5-7-7-7-7-7-7-5-5-5-5-5-5-4-|
|----------------------------------------|
|----------------------------------------| let the last note ring
|----------------------------------------|
|----------------------------------------|
|----------------------------------------|

Guitar 2 (rhythm)

  A      G#m     C#m      E (high octave)
|-5-------4-------4-------7----------------------------------------|
|-5-------4-------5-------9----------------------------------------|
|-6-(x16)-4-(x16)-6-(x16)-9-(x16)       play this twice (till 3:14-| then...
|-7-------6-------6-------9----------------------------------------|
|-7-------6-------4-------7----------------------------------------|
|-5-------4-------4-------7----------------------------------------|

   A     G#m     A      E (low octave)
|--5------4------5------0-|
|--5------4------5------0-|
|--6-(x8)-4-(x8)-6-(x8)-1-| let the last note ring
|--7------6------7------2-|
|--7------6------7------2-|
|--5------4------5------0-|

00:00 / 00:00
Otros videos de esta canción
Repetir
Otros videos de esta canción
Composición de Ali Clewer / Chris Fields Wheatcroft / Matthew Greener / Tom Derrett
21 exhibiciones
    • ½ Tono
    • A
    • Bb
    • B
    • C
    • Db
    • D
    • Eb
    • E
    • F
    • F#
    • G
    • Ab
  • Agregar a la lista
    00:00 / 00:00
    OK