Cifra Club

Drilling For Brains

Mortician

Cifrado: Principal (guitarra y guitarra eléctrica)
Selo Cifra Club: esta cifra foi revisada para atender aos critérios oficiais da nossa Equipe de Qualidade.
tono: D
Riff 01 x8
E|---------------------|
B|---------------------|
G|---------------------|
D|---------------------|
A|---------------------|
E|-4"---2"---3"---1"---|

Transition
E|------|
B|------|
G|------|
D|------|
A|--6---|
E|--4---|

Riff 02 x8
A|-----------------|
E|-----------------|
C|-----------------|
G|-----------------|
D|-6-6-4-4-5-5-3-3-|
A|-4-4-2-2-3-3-1-1-|
   . . . . . . . .

Riff 03 x2
A|---------------------------------|
E|---------------------------------|
C|---------------------------------|
G|---------------------------------|
D|-6-6-4-4-5-5-3-3-6-6-4-4-5-5-3-3-|
A|-4-4-2-2-3-3-1-1-4-4-2-2-3-3-1-1-|
   . . . . . . . . . . . .

Riff 04 x2
E|------------------------------------------------|
B|------------------------------------------------|
G|------------------------------------------------|
D|------------------------------------------------|
A|--------------4-3-"----4-5-5-4-3-"----4-5-5-4-3-|
E|-4"-2"-3"-1"--2-1-4----2-3-3-2-1-4----2-3-3-2-1-|
Otros videos de esta canción
    3 exhibiciones
      • ½ Tono
      • A
      • Bb
      • B
      • C
      • Db
      • D
      • Eb
      • E
      • F
      • F#
      • G
      • Ab
    • Agregar a la lista

    Afinação da cifra

    Afinador online

      Ops (: Contenido disponible solo en portugués.
      OK