Cifra Club

Scrolls Of The Megilloth

Mortification

Cifrado: Principal (guitarra y guitarra eléctrica)
tono: D
After the organ plays for a while guitar1 comes in with Riff a:
Riff a
|---|-----------------------|------------------------|
|---|-----------------------|------------------------|
|---|-----------------------|------------------------|x4
|---|-----------------------|------------------------|
|---|-----------------------|------------------------|
|-22|1111111111111111115555-|-4444444444444433332222-|
1time

Riff a
|-----------------------|------------------------|
|-----------------------|------------------------|
|-----------------------|------------------------|x4
|-----------------------|------------------------|
|-----------------------|------------------------|
|1111111111111111115555-|-4444444444444433332222-|
Guidance of our intimacy
Holy love is what I see
Direction from the book of life
Song of songs in the Megilloth

Riff b (chorus)
|-------------------------|------------------------|
|-------------------------|------------------------|
|-------------------------|------------------------|x2 (2nd time
|-------------------------|------------------------|with words)
|-------------------------|-------------3-3-2-2----|
|-6-666666666-3-333333333-|-2-222222222-1-1-0-0----|
 Existence of admiration     Man's part of God's creation

Scrolls of the Megilloth
                         |-----------------|
                         |-----------------|
                         |---------------2-|
                         |---------------2-|
                         |--333322221111-0-|

Scrolls of the Megilloth
                         |------------------|
                         |------------------|
                         |------------------|
                         |------------------|
                         |--33332222111111--|

Riff a
|-----------------------|------------------------|
|-----------------------|------------------------|
|-----------------------|------------------------|x6
|-----------------------|------------------------|
|-----------------------|------------------------|
|1111111111111111115555-|-4444444444444433332222-|
David's geneology
A female friend is she
Ruth is a book of love
To overcome difficulties

Riff b (chorus)
|-------------------------|------------------------|
|-------------------------|------------------------|
|-------------------------|------------------------|
|-------------------------|------------------------|
|-------------------------|-------------3-3-2-2----|
|-6-666666666-3-333333333-|-2-222222222-1-1-0-0----|
Boaz, symbolic of Christ Redeeming His holy Church

Scrolls of the Megilloth
                         |-----------------|
                         |-----------------|
                         |---------------2-|
                         |---------------2-|
                         |--333322221111-0-|

Scrolls of the Megilloth
                         |------------------|
                         |------------------|
                         |------------------|
                         |------------------|
                         |--333322221111----|

Riff c
|-------|--------|------------|-----|--------|----------|
|-------|--------|------------|-----|--------|----------|
|-------|--------|------------|-----|--------|----------|
|---2---|-2-2--3-|-3--5-5-5-5-|--2--|-2-2--3-|-6-7--6-7-|x4
|---2---|-2-2--3-|-3--5-5-5-5-|--2--|-2-2--3-|-6-7--6-7-|
|---0---|-0-0--1-|-1--3-3-3-3-|--0--|-0-0--1-|-4-5--4-5-|
  Esther,         victory of morals over conniving racist king
Sovereignty       and geat courage  Protection of God's people

Riff a
|-----------------------|------------------------|
|-----------------------|------------------------|
|-----------------------|------------------------|x8
|-----------------------|------------------------|
|-----------------------|------------------------|
|1111111111111111115555-|-4444444444444433332222-|
Taken to captivity
A sense of tragedy
Jerimiah's lamentation
Grieving for his nation

Riff b (chorus)
|-------------------------|------------------------|
|-------------------------|------------------------|
|-------------------------|------------------------|x2
|-------------------------|------------------------|
|-------------------------|-------------3-3-2-2----|
|-6-666666666-3-333333333-|-2-222222222-1-1-0-0----|
 Destruction is a logical result of defying God

Scrolls of the Megilloth
                         |-----------------|
                         |-----------------|
                         |---------------2-|
                         |---------------2-|
                         |--333322221111-0-|

Scrolls of the Megilloth
                         |------------------|
                         |------------------|
                         |------------------|
                         |------------------|
                         |--33332222111111--|

Riff a
|-----------------------|------------------------|
|-----------------------|------------------------|
|-----------------------|------------------------|
|-----------------------|------------------------|x6
|-----------------------|------------------------|
|1111111111111111115555-|-4444444444444433332222-|
A book of philosophy
Frustration absurdity
Everything has a season
Purposed under Heaven

Riff b (chorus)
|-------------------------|------------------------|
|-------------------------|------------------------|
|-------------------------|------------------------|
|-------------------------|------------------------|x2
|-------------------------|-------------3-3-2-2----|
|-6-666666666-3-333333333-|-2-222222222-1-1-0-0----|
Ecclesiastes, Soloman's searching Just like your life

Scrolls of the Megilloth
                         |-----------------|
                         |-----------------|
                         |---------------2-|
                         |---------------2-|
                         |--333322221111-0-|

Scrolls of the Megilloth
                         |----------------|
                         |----------------|
                         |----------------|
                         |----------------|
                         |--333322221111--|

Riff c
|-------|--------|------------|-----|--------|----------|
|-------|--------|------------|-----|--------|----------|
|-------|--------|------------|-----|--------|----------|
|---2---|-2-2--3-|-3--5-5-5-5-|--2--|-2-2--3-|-6-7--6-7-|x2
|---2---|-2-2--3-|-3--5-5-5-5-|--2--|-2-2--3-|-6-7--6-7-|
|---0---|-0-0--1-|-1--3-3-3-3-|--0--|-0-0--1-|-4-5--4-5-|

Riff a
|---|-----------------------|------------------------|
|---|-----------------------|------------------------|
|---|-----------------------|------------------------|x2
|---|-----------------------|------------------------|
|---|-----------------------|------------------------|
|-22|1111111111111111115555-|-4444444444444433332222-|
1time

Ending
|-----------------------------|-----------------------------|
|-----------------------------|-----------------------------|
|-----------------------------|---------55555544444444333333|
|------------55554444444443333|111111111--------------------|
|-11111111111-----------------|-----------------------------|
|-----------------------------|-----------------------------|

|------------------|--------------------------------|
|------------------|--------------------------------|
|-1111-------------|--------------------------------|
|-----22221111-----|---------------------2----------|
|-------------2222-|---------------------2----------|
|------------------|-2222111111222211111-0----------|
00:00 / 00:00
Otros videos de esta canción
Repetir
Otros videos de esta canción
Composición de Steve Rowe
Colaboración y revisión:
  • elvis macedo
97 vistas
    • ½ Tono
    • A
    • Bb
    • B
    • C
    • Db
    • D
    • Eb
    • E
    • F
    • F#
    • G
    • Ab
  • Agregar a la lista

    0 comentarios

    Ver todos los comentarios

    ¿Lograste tocar?

    1 Tocaron 0 Aún no

    ¡Graba un video tocando Scrolls Of The Megilloth y envíanoslo!

    00:00 / 00:00
    OK