Cifra Club

Crown Of Thorns

Mother Love Bone

Cifrado: Principal (guitarra y guitarra eléctrica)
Selo Cifra Club: esta cifra foi revisada para atender aos critérios oficiais da nossa Equipe de Qualidade.
tono: A
Tabbed by: Lowell Godin
Email: *
Tuning: EADGBe

Verse 1

e:-----x--x--x--x---x--x---x--x--x    played--| x8
A:-----5--5--3--3---5--5---3--3--3------------|
D:-----7--6--5--4---7--6---5--4--0------------|
G:-----7--7--5--5---7--7---5--5--0------------|
B:-----x--x--x--x---x--x---x--x--x------------|
E:-----x--x--x--x---x--x---x--x--x------------|

Chorus

e:-----x-x-x-x-xxxx---x-x-x-x-xxxx---x-x-x-x-xxxx---x--x--x-|
B:-----5-5-5-5-5555---3-3-3-3-3333---5-5-5-5-5555---3--3--3-|
G:-----7-6-7-6-7777---5-4-5-4-5555---7-6-7-6-7777---5--4--0-|
D:-----7-7-7-7-7777---5-5-5-5-5555---7-7-7-7-7777---5--5--0-|
A:-----x-x-x-x-xxxx---x-x-x-x-xxxx---x-x-x-x-xxxx---x--x--x-|
E:-----x-x-x-x-xxxx---x-x-x-x-xxxx---x-x-x-x-xxxx---x--x--x-|

Verse 1 x2
Chorus x2

e:-----x--xxxxxxx-x-x-xxxxxxx   Played--| x4
B:-----x--xxxxxxx-x-x-xxxxxxx-----------|
G:-----2--5555555-5-4-xxxxxxx-----------|
D:-----2--5555555-5-4-5555555-----------|
A:-----0--3333333-3-2-5555555-----------|
E:-----x--xxxxxxx-x-x-3333333-----------|

On the 4th time at the end play instead of 355 play 577.

x x
x x
x 7
5 7
5 5
3 x


e:-----x-x-x-x-xxxx---x-x-x-x-xxxx-----|    x2
B:-----9-9-9-9-9999---7-7-7-7-7777-----|
G:-----9-8-9-8-9999---7-6-7-6-7777-----|
D:-----7-7-7-7-7777---5-5-5-5-5555-----|
A:-----x-x-x-x-xxxx---x-x-x-x-xxxx-----|
E:-----x-x-x-x-xxxx---x-x-x-x-xxxx-----|
Otros videos de esta canción
    4.301 exhibiciones
      • ½ Tono
      • A
      • Bb
      • B
      • C
      • Db
      • D
      • Eb
      • E
      • F
      • F#
      • G
      • Ab
    • Agregar a la lista

    Afinación de cifrado

    Afinador online

      OK