Cifra Club

Stargazer

Mother Love Bone

Cifrado: Principal (guitarra y guitarra eléctrica)
Selo Cifra Club: esta cifra foi revisada para atender aos critérios oficiais da nossa Equipe de Qualidade.
tono: G
Intro

Rhy. Fig. A
 N.C.          G                                 C
e|-(5)h6-5-------------6-----5-------(5)h6-5-------------8-----8--------|
B|---------6p5-3-----------3-----------------6p5-5----------------------|
G|----------------------------------------------------------------------|
D|----------------------------------------------------------------------|
A|----------------------------------------------------------------------|
E|----------------------------------------------------------------------|

                                                        (End Rhy. Fig. A)
               G                                 C       Em
|--(5)h6-5-------------6-----5-------(5)h6-5----------------------------|
|----------6p5-3-----------3-----------------6p5-5------(5)-------------|
|-----------------------------------------------------------------------|
|-----------------------------------------------------------------------|
|-----------------------------------------------------------------------|
|-----------------------------------------------------------------------|


w/Rhy. Fig. A (4 times)

Verse 1:
G            C
Crazy crazy, I'm the boy
G              C  Em
who defies all
G              C
Lift me higher than anyone
G                C  Em
and hold my arms

Verse 2:
Woman woman, she outta mind
and simply out of soul
She gets me higher  (w/Fill 1)
 than anyone
and I miss her so


Prechorus
  G5
|-2/3-3-3---3-3-3-3/5-5-5---5-5-5-5/6-6-5---3---3-----------------------|
|-2/3-3-3---3-3-3-3/5-5-5---5-5-5-5/6-6-5---3---3-----------------------|
|-0---0-0---------0---0-0---------0---0-----0---0-----------------------|
|-----------------------------------------------0-----------------------|
|-----------------------------------------------------------------------|
|-----------------------------------------------3-----------------------|
                                                 1. I miss her so...
                                                 2. Why she done it to me


|-2/3-3-3---3-3-3-3/5-5-5---5-5-5-5/6-6-5---3---3-----------------------|
|-2/3-3-3---3-3-3-3/5-5-5---5-5-5-5/6-6-5---3---3-----------------------|
|-0---0-0---------0---0-0---------0---0-----0---0-----------------------|
|-----------------------------------------------0-----------------------|
|-----------------------------------------------------------------------|
|-----------------------------------------------3-----------------------|
 1.
 2.                Why she done it to me...       so I'm singin'


CHORUS:
F
Stargazer, you call the shots
G
and I take 'um
F
Stargazer, won't ya kick with me
G
please

Stargazer you call the shots
and I take 'um
Stargazer, won't ya kick with me
Oh baby, please


w/Rhy. Fig. A (3 times)
(ad lib over 1st rep.)

Verse 3:
Dancer dancer, I'm all wrong
she thinks she's young and wise
She dance around my  (w/Fill 2)
 my pretty little cable car
And fix me up with a guy--why?  C'mon

(Prechorus)
(Chorus)

G
Tell you what..

Bridge:
Am
Stargazer you cry in blue
C
Anything I've ever seen
G                     D         Dsus4  D  Dsus2  D
It ain't as good as you, child
Am                             C
I'm not trying to push your feelings
                 G
But I know you hold me
                     Am
Like putty in your hands

Outro (play twice):
F                        G
Cry for me and rub it in
                                         Am
Cry for the savior and the prophet's son
F                         G
Dream of me and Julie Ann
                        Am
Oh Xana come back again

-------------------------

Fill 1                              Fill 2
   C                                   C
|--------8-------10-------12--|     |--------8-------10-----8--|
|-----------------------------|     |--------------------------|
|--8/-9-----9/10----10/12-----|     |--8/-9-----9/10----\9-----|
|-----------------------------|     |--------------------------|
|-----------------------------|     |--------------------------|
|-----------------------------|     |--------------------------|


Chords used:

   Am    C     D   Dsus2 Dsus4   Em    F     G     G5
|--0-----0-----2-----0-----3-----0-----1-----3-----3--|
|--1-----1-----3-----3-----3-----0-----1-----3-----3--|
|--2-----0-----2-----2-----2-----0-----2-----0-----0--|
|--2-----2-----0-----0-----0-----2-----3-----0-----0--|
|--0-----3-----------------------2-----3-----2--------|
|--------------------------------0-----1-----3-----3--|
Otros videos de esta canción
    5.144 exhibiciones
      • ½ Tono
      • A
      • Bb
      • B
      • C
      • Db
      • D
      • Eb
      • E
      • F
      • F#
      • G
      • Ab
    • Agregar a la lista

    Afinación de cifrado

    Afinador online

      OK