Cifra Club

Ace of Spades

Motörhead

Cifrado: Principal (guitarra y guitarra eléctrica)
Selo Cifra Club: esta cifra foi revisada para atender aos critérios oficiais da nossa Equipe de Qualidade.
tono: A
Intro: E5
    E5
Eb|-----------------------------------------
Bb|-----------------------------------------
Gb|-----------------------------------------
Db|---------------9--9-8--8-7---------------
Ab|---------------7--7-7--7-7---------------
Eb|-0--0-0--0-0-0-0--0-0--0-0---------------


Primeira Parte:
    G5
Eb|-----------------------------------------
Bb|-----------------------------------------
Gb|-----------------------------------------
Db|-5------5------5-------5--5--5--5--5-----
Ab|-5------5------5-------5--5--5--5--5-----
Eb|-3----0-3----0-3-------3--3--3--3--3-----
    E5
Eb|-----------------------------------------
Bb|-----------------------------------------
Gb|-----------------------------------------  (4x)
Db|---------------9--9-8--8-7---------------
Ab|---------------7--7-7--7-7---------------
Eb|-0--0-0--0-0-0-0--0-0--0-0---------------
    D5                 C5
Eb|-----------------------------------------
Bb|-----------------------------------------
Gb|-7------------------5--------------------
Db|-7------------------5--------------------
Ab|-5------------------3--------------------
Eb|-----------------------------------------
    E5
Eb|-----------------------------------------
Bb|-----------------------------------------
Gb|-----------------------------------------  (2x)
Db|---------------9--9-8--8-7---------------
Ab|---------------7--7-7--7-7---------------
Eb|-0--0-0--0-0-0-0--0-0--0-0---------------
    D5                 C5
Eb|-----------------------------------------
Bb|-----------------------------------------
Gb|-7------------------5--------------------
Db|-7------------------5--------------------
Ab|-5------------------3--------------------
Eb|-----------------------------------------


G5
If you like to gamble, I tell you I'm your man
                                                 E5 (Riff 2x)
You win some, lose some, It's all the same to me
      D5                  C5                              E5 (Riff)
The pleasure is to play, makes no difference what you say
D5                          C5
I don't share your greed, the only card I need is
Riff:
Eb|---------------------------------------------------
Bb|-14b15r-14--12--14--12~~---14b15r14--12------------
Gb|-14b15r-14--12--14--12~~---14b15r14--12--14~~------
Db|-----------------------------------------14~~------
Ab|---------------------------------------------------
Eb|---------------------------------------------------


Refrão:
    E5
Eb|-----------------------------------------
Bb|-----------------------------------------
Gb|-----------------------------------------  (4x)
Db|---------------9--9-8--8-7---------------
Ab|---------------7--7-7--7-7---------------
Eb|-0--0-0--0-0-0-0--0-0--0-0---------------


    E5
The Ace of Spades, The Ace of Spades

( E5 )

Segunda Parte:
  G5
Playing for the high one, dancing with the Devil
                                           E5 (Riff 2x)
Going with the flow, it's all a game to me
 D5                C5                    E5 (Riff)
Seven or eleven, snake eyes watching you
 D5                 C5
Double up or quit, double strake or split

Refrão:
    E5
The Ace of Spades, The Ace of Spades

( E5 )

Ponte:
    E5                 ( D5 E5 )
Eb|-----------------------------------------
Bb|-----------------------------------------
Gb|-----------------------------------------
Db|-9-----------------7--9------------------
Ab|-7-----------------5--7------------------
Eb|-----------------------------------------
    E5
Eb|-----------------------------------------
Bb|-----------------------------------------
Gb|-----------------------------------------
Db|-9-9-9-9-9-9-9-9-------------------------
Ab|-7-7-7-7-7-7-7-7-------------------------
Eb|-----------------------------------------
    D5
Eb|-----------------------------------------
Bb|-----------------------------------------
Gb|-----------------------------------------
Db|-7--7-7--7-7-7-7--7-7--7-7-7-7--7-7------
Ab|-5--5-5--5-5-5-5--5-5--5-5-5-5--5-5------
Eb|-----------------------------------------
          ( E5 D5 C5 B5 )
Eb|-----------------------------------------
Bb|-----------------------------------------
Gb|-----------------------------------------
Db|-7-7-7-7/9--7--5--4--4-4--4-4-4-4--------
Ab|-5-5-5-5/7--5--3--2--2-2--2-2-2-2--------
Eb|-----------------------------------------

Eb|-----------------------------------------
Bb|-----------------------------------------
Gb|-----------------------------------------
Db|-4-4--4-4-4-4--4-4--4-4-4-4--4-4--4-4-4--
Ab|-2-2--2-2-2-2--2-2--2-2-2-2--2-2--2-2-2--
Eb|-----------------------------------------


      E5               ( D5   E5 )
You know I born to lose, and gambling's made for fools

But that's the way I like it baby
( E5 )                       D5
  I don't wanna live forever
( E5  D5  C5  B5 )
                 And don't forget the Joker

Solo: A5  B5  A5
Eb|---------------------------------------------------
Bb|---------------------------------------------------
Gb|---------------------------------------------------
Db|--------------------------------5--7p5-----7~------
Ab|-----3-5~----5p3-----3b~----5/7--------7-5---------
Eb|-3/5-------------5-3-------------------------------
        P.M.    . .     . .     . .
Eb|---------------------------------------------------
Bb|---------------------------------------------------
Gb|---------------------------------------------------
Db|-7p5-----7p5-----7p5-----7p5-----7b8--7--5---------
Ab|-----7-5-----7-5-----7-5-----7-5------------7--5h7-
Eb|---------------------------------------------------

Eb|---------------------------------------------------
Bb|---------------------------10----------------------
Gb|-------------------7-9b11------b11--7h9p7----7~~---
Db|-----7-9p7-----7/9------------------------9--------
Ab|-7/9-------9-7-------------------------------------
Eb|---------------------------------------------------

Eb|---------------------------------------------------
Bb|-10---.....--10...--11...--12...--12...--14...--15-
Gb|--9b11.....-b11...-b12...-b13...-b14...-b15...-b16-
Db|---------------------------------------------------
Ab|---------------------------------------------------
Eb|---------------------------------------------------

Eb|---------------------------------------------------
Bb|-------13-15~----15p13-------13b~------------------
Gb|-12/14-----------------14-12-----------------------
Db|---------------------------------------------------
Ab|---------------------------------------------------
Eb|---------------------------------------------------

Eb|---------------------------------------------------
Bb|-----13-15b17r15p14p13--------------17p16p15p14\13-
Gb|-/14-------------------14~----14-12----------------
Db|---------------------------------------------------
Ab|---------------------------------------------------
Eb|---------------------------------------------------

Eb|------------------15-------------------------------
Bb|--------------15-----------------------------------
Gb|-14b16r14-12---------------------------------------
Db|----------------------14--12--10------------10-----
Ab|----------------------------------12--10h12--------
Eb|---------------------------------------------------


( E5 )

Terceira Parte:
 G5
Pushing up the ante, I know you've got to see me
                                             E5  (Riff 2x)
Read 'em and weep, the dead man's hand again
   D5                   C5                   E5  (Riff)
I see it in your eyes, take one look and die
    D5                        C5
The only thing you see, you know it's gonna be

Refrão:
    E5
The Ace of Spades, The Ace of Spades

( E5 )

( D5  C5 ) (2x)
Eb|-12-----12--------------------12-----12------------
Bb|-15b17--15b17~~---------------15b17--15b17~~-------
Gb|---------------------------------------------------   (2x)
Db|---------------------------------------------------
Ab|---------------------------------------------------
Eb|---------------------------------------------------


( E5  D5  E5 )  (2x)
Otros videos de esta canción
    16.827 exhibiciones
      • ½ Tono
      • A
      • Bb
      • B
      • C
      • Db
      • D
      • Eb
      • E
      • F
      • F#
      • G
      • Ab
    • Agregar a la lista

    Afinação da cifra

    Afinador online

      Capítulos
      • Início
      • Afinação
      • Configuração dos Efeitos
      • Acordes da Introdução
      • Tocando Introdução
      • Ensinando Introdução
      • Acordes da Primeira Parte
      • Tocando Primeira Parte
      • Ensinando Primeira Parte
      • Ensinando Riff
      • Tocando Refrão e Ponte
      • Ensinando Ponte
      • Tocando Solo
      • Ensinando Solo
      • Tocando Final
      • Ensinando Riff do Final
      • Encerramento
      Ops (: Contenido disponible solo en portugués.
      OK