Cifra Club

Viper Town

Mourning Tide

Cifrado: Principal (guitarra y guitarra eléctrica)
tono: A
Ok so i tabbed out this song and ive figured out that
so i might take the time to retab the other one or you could
just do it yourself just increase every number on the fret
on Sugar sugar by one and tune your guitar to drop D flat.

Tuning : Db

intro
                                x4
Eb|---------------------------|
Bb|-10--9---12-12-12s10-------|
Gb|-10--10--12-12-12s10-------|
Db|---------------------------|
Ab|---------------------0-----|
Db|---------------------0-----|

intro (solo)
Eb|---------------------------------------------13------|
Bb|-------------------15---13-15-13-15----13-15---15----|
Gb|--10-9-7-12-10-9-------------------------------------|
Db|-----------------------------------------------------|
Ab|-----------------------------------------------------|
Db|-----------------------------------------------------|

intro solo part 2                |end on  x2|
Eb|-------------13-15-15b-13-----|----------|
Bb|-13-15-13-15-------------15---|----------|
Gb|------------------------------|--10p9----|
Db|------------------------------|------10--|
Ab|------------------------------|----------|
Db|------------------------------|----------|

verse
Eb|-----------------------------------------|
Bb|----------10-10-9------------------------|
Gb|----------10-10-10---------------10p9----|
Db|-0-3-3s5------------0-5-5s3-3-0-------10-|
Ab|-0-3-3s5------------0-5-5s3-3-0----------|
Db|-0-3-3s5------------0-5-5s3-3-0----------|

chorus (second time around after every little lick
in the chorus the last note is a pinched harmonic)
Eb|----------------------------------------------|
Bb|----------------------------------------------|
Gb|------------10-9-7*------10-9-----------------|
Db|-5-4-3-0-----------0-0--------10*0-3-0--------|
Ab|-5-4-3-0-----------0-0-----------0-3-0--------|
Db|-5-4-3-0-----------0-0-----------0-3-0--------|
                      p.m
Eb|----------------------------------------------|
Bb|----------------------------------------------|
Gb|------------10-9-7*------10-9-----------10p9--|
Db|-5-4-3-0-----------0-0--------3--33-0-------10|
Ab|-5-4-3-0-----------0-0--------3--33-0---------|
Db|-5-4-3-0-----------0-0--------3--33-0---------|
                      p.m

chorus part 2 (rythm only)
Eb|----------------------------------------------|
Bb|----------------------------------------------|
Gb|----------------------------------------------|
Db|-0---3---5----8-8-8-8--10-10-10---------------|
Ab|-0---3---5----8-8-8-8--10-10-10---------------|
Db|-0---3---5----8-8-8-8--10-10-10---------------|
                   p.m       p.m
throwdown (the opens are palm muted alot)
Eb|---------------------------------------|
Bb|---------------------------------------|
Gb|---------------------------------------|
Db|--0--3--0--5--0--3s5s6-5-3-3-0-------|
Ab|--0--3--0--5--0--3s5s6-5-3-3-0-------|
Db|--0--3--0--5--0--3s5s6-5-3-3-0-------|
    p.m   p.m   p.m               p.m

more throwdown                ...okay that sounds dodgey
Eb|-------------------------------------|
Bb|-------------------------------------|
Gb|-------------------------------9-----|
Db|-0-0-0----0000--0-0-0----10h12---10--|
Ab|-0-0-0----0000--0-0-0----------------|
Db|-0-0-0----0000--0-0-0----------------|

SHREDDDDD! lol dont take that shitty arpeggio seriously
its as close as i can get though =P
Eb|-----------------------------|
Bb|-------2h3-------------------|
Gb|------2----------------------|
Db|----4------------------------|
Ab|--5--------------------------|
Db|-5---------------------------|
TOTALLY SWEEP THIS!


Yep thats pretty much it
-Jack
00:00 / 00:00
Otros videos de esta canción
Repetir
Otros videos de esta canción
Compositor no encontrado.
42 exhibiciones
    • ½ Tono
    • A
    • Bb
    • B
    • C
    • Db
    • D
    • Eb
    • E
    • F
    • F#
    • G
    • Ab
  • Agregar a la lista
    00:00 / 00:00
    OK