Cifra Club

Aluga-se Vende

Móveis Coloniais de Acaju

Tablatura: Principal (guitarra)
Tom: C
(intro)

E|---------------------------------------------------------------------
B|---------------------------------------------------------------------
G|---------------------------------------------------------------------
D|-------2-3-----0-2------2-3-----0-2-0------2-3------0-2------2-3-----
A|---3-3--------------3-3----------------3-3---------------3-3---------
E|-----------4-4--------------4-4-----------------4-4--------------4-4-


E|---------------------------------------------------------------------
B|---------------------------------------------------------------------
G|---------------------------------------------------------------------
D|------2-3-----0-2--------------------2-3-----0-2-------6-6-5-3-2-----
A|--3-3-------------0-2-3----------3-3-------------0-2-3---------------
E|----------4-4-----------4-4-3-1----------4-4-------------------------

E|---------------------------------------------------------------------
B|---------------------------------------------------------------------
G|---------------------------------------------------------------------
D|---------------2-----------------------------------------------------
A|-3-3-3-----------3-3-3-----------------------------------------------
E|-------4-4-3-1---------4-4-3-1---------------------------------------

E|---------------------------------------------------------------------
B|---------------------------------------------------------------------
G|---------------------------------------------------------------------
D|---------------------------------------------------------------------
A|-----------0---0-----3-2-0-2---------------0---0-----3-2-0-2--------
E|-0-0-1-3-1---4---0-4---------3---0-0-1-3-1---4---0-4---------3^5-----

(intro) Am Am7M Am7 Am6 F G 

E|----------------------------------------------------------------
B|----------------------------------------------------------------
G|----------------------------------------------------------------
D|----------------------------------------------------------------
A|------------3----5------7----5------5----7----5----3------------
E|--3----5--------------------------------------------------------

------------------------------------------------------------------
------------------------------------------------------------------
------------------------------------------------------------------
------------------------------------------------------------------
--2----3----5----3------2----0----2----3------2----0--------------
--------------------------------------------------------3----0----

------------------------------------------------------------------
------------------------------------------------------------------
------------------------------------------------------------------
------------------------------------------------------------------
------------------------------------------------------------------
--3----3----0----3------4----4----0----4------5-------------------


Am9 Am7M
Alto lá
    C6/9   F7+
Não volte aqui, não
Bm7/5-        F    E
Quem lhe fez fingir viver
Uma vida feliz?

Am9    Am7M
Tá, eu sei
  C6/9  F7+
Meras tolices
Bm7/5-       F      E
Nos    fizeram sem querer
Precisar de um juiz

F          E
Ah! essas suas
F6
Chaves já não
       E
Servem mais
                     F7+
Meu quarto e sala já tem
        E
Um corretor
     F6
E se você quiser
        E
Terá de alugar, meu amor

( Am Am7M Am7 Am6 F E )

Am9  Am7M
Alto lá
    C6/9  F7+
Não fale assim, não
Bm7/5-    F       E
Nem no medo vão nos ver
Ter a vida feliz!

Am9    Am7M
Mas cansei
     C6/9 F7+
Pois além disso
Bm7/5-    F       E
Nossa estupidez não nos
Deixou ver quanto gris

F          E
Ah! essas suas
 F6
Frases já não
       E
Ofendem mais
                     F7+
Meu quarto e sala já tem
     E
Um fiador
     F6
E se você quiser
             E             C
Saiba que eu tenho já, meu amor

( G/B Am G F Em Dm G )

E|-----------------------------------------------------------------------
B|-----------------------------------------------------------------------
G|-----------------------------------------------------------------------
D|--2----2----0----2-------------5----3----2----0------------------------
A|------------------------2----------------------------------------------
E|-----------------------------------------------------------------------

-------------------------------------------------------------------------
-------------------------------------------------------------------------
-------------------------------------------------------------------------
--3----2----3----2------3----2------2----0----2----0-----------2----0----
----------------------------------------------------------3--------------
-------------------------------------------------------------------------

-------------------------------------------------------------------------
-------------------------------------------------------------------------
 (3x)--------------------------------------------------------------------
--------0----0----2----3-------------------------------------------------
-------------------------------------------------------------------------
-------------------------------------------------------------------------

C G/B    Am         G
Nem mais sei quem é você
      F       Em   Dm     G
Que está aqui de mudanças.
C G/B    Am        G
Só, vou lhe deixar aí!
    F  Em    Dm   G
Solidão e lembranças...

(G)

Metais:

 (G)
E|-----------------------------------------------------------------
B|-----------------------------------------------------------------
G|-----------------------------------------------------------------
D|--0-----2----3----2-----0----------------------------------------
A|---------------------------------------------2----3----2----0----
E|-------------------------------3---------------------------------

----------------------------------------------------------------------
----------------------------------------------------------------------
----------------------------------------------------------------------
----------------------------------------------------------------------  (2x)
-------------------2----3----2----0-----------------------------------
--3----0----3----------------------------3----5----3------------------


-------||
-------||
-------|| (2x)
-0-----||
----3--||

G D/F#    Em         D
Vê se vêm buscar o que
       C  Bm      Am   D
Restou aqui de lembranças.
G D/F#  Em        D        C     Bm
Pois já é hora de por recordações
     Am     D   Cm
Para fora...

( Cm Cm/Bb Cm/A Cm/Ab )
reproducciones 37
Acordes para:
    Colaboración y revision:
    • Lucas Albuquerque
    • pedro souza

    0 comentarios

    mostrar más comentarios

    ¿Conseguiste tocar?

    1 tocaron 0 aún no

    ¡Graba un vídeo tocando Aluga-se Vende y envianoslo!

    00:00 / 00:00
    outros vídeos desta música
    repetir qualidade Automático
    Outros vídeos desta música
    00:00 / 00:00
    Automático
    OK