Cifra Club

Lista de Casamento

Móveis Coloniais de Acaju

Tablatura: Principal (guitarra)
Tom: A
Riff 1:
E|----------------------------------------------------------------|
B|---------------------------------------8-----8--8-------6----6--|
G|---------------------------------------7-----7--7-------6----6--|
D|-----------5-5-5------------5-5--------6-----6--6-------5----5--|
A|-5-5-0-0---------5-5-5-0-0------5-6-7--7-----7--7-------6----6--|
E|----------------------------------------------------------------|

Rifr 2: 
E|---------------------5-|
B|---------------------6-|
G|--9--9-8-8-7-7---5---7-|
D|---------------------7-|
A|---------------------5-|
E|-----------------------|

Riff 3:
E|----------------------------------|
B|----------------------------------|
G|----------------------------------|
D|----7---6------5-----3------------|
A|--5---5---5-------5-------5--3--5-|
E|----------------------------------|

Intro: Riff 1 (4x)
       Dm  A# A7  Dm  A# A7 Dm
       Riff 2 (2x)

Dm                 E7
Quem diria o amor sobrou
Dm                  E7     A#
Mas o aspirador faltou na lista
Dm
E se é pra casar
E7           G#º
Me faça o favor
A#               A7
Pois pra solucionar
Dm                           E7  G#º
Sou capaz de esquecer o meu nome
Dm                   E7   G#º
Sou capaz de desaparecer
Dm                       E7     G#º
Sou capaz de beijar um ouriço
A#                A7
Se isso for resolver
Dm                           E7  G#º
Sou capaz de esquecer o meu nome
Dm                   E7   G#º
Sou capaz de desaparecer
Dm                     E7     G#º
Sou capaz de beijar um ouriço
A#                A7
Se isso for resolver
Dm                  E7
Eu tenho quase certeza (2x)
Riff 3
De que estou no lugar errado (2x)
Dm                  E7
Eu tenho quase certeza (2x)
Riff 3
De que estou no lugar errado (2x)
A#                       A7
Mas se eu não me engano.... eu posso estar enganado!
reproducciones 22
Acordes para:
    Colaboración y revision:
    • Wilckerson Ganda

    0 comentarios

    mostrar más comentarios

    ¿Conseguiste tocar?

    1 tocaron 0 aún no

    ¡Graba un vídeo tocando Lista de Casamento y envianoslo!

    00:00 / 00:00
    outros vídeos desta música
    repetir qualidade Automático
    Outros vídeos desta música
    00:00 / 00:00
    Automático
    OK