Cifra Club

Be With You

Mr. Big

Cifrado: Principal (guitarra y guitarra eléctrica)
Selo Cifra Club: esta cifra foi revisada para atender aos critérios oficiais da nossa Equipe de Qualidade.
tono: D
C#m             E      A                  E
Hold on little girl.  Show me what he's done to you.
C#m             E         A                 E
Stand up little girl.  A broken heart can't be that bad.
             A            E         A                  E
When it's through, it's through.  Fate will twist the both of you.
     D                           B
So come on baby, come on over.  Let me be the one to show you.


E   E/F# E/G#    E  Asus2    B        E
I'm the  one    who wants to be with you.
E      E/F# E/G#    E   Asus2        B       E
Deep   inside       I   hope you'll feel it too.
E   E/F# E/G#    E   Asus2    B          C#m
Waited    on     a   line of greens and blues
E     E/F#  E/G#    E   Asus2      B         E
just  to    be     the  next to    be with  you.


C#m             E         A               E
Build up your confidence so you can be on top for once.
C#m             E         A                 E
Wake up! Who cares about little boys that talk too much?
    A            E            A                E
I seen it all go down.  Your game of love was all rained out.
    D                            B
So come on baby, come on over.  Let me be the one to hold you.


E   E/F# E/G#    E  Asus2    B        E
I'm the  one    who wants to be with you.
E      E/F# E/G#    E   Asus2        B       E
Deep   inside       I   hope you'll feel it too.
E   E/F# E/G#    E   Asus2    B          C#m
Waited    on     a   line of greens and blues
E     E/F#  E/G#    E   Asus2      B         E
just  to    be     the  next to    be with  you.


A                        C#m
Why be alone     when we can be together baby?
G                                 G                        INICIO SOLO
You can make my life worthwhile.  I can make you start to  smile.


BASE SOLO = BASE DO REFRÃO

    sl.        h  p  h
-----------------------|----------------------------|
----------5------------|----------------------------|
-1--2/-4-----6----4----|-4----4---------------------|
-2--4/-6-----7----7----|-4----4--6--4--6------------|
-----------------------|----------------------------|
-----------------------|----------------------------|

    sl.    ~~~   h  p p     let ring
------------------4----|-2--4-2-0----0--0-----------|
----------5---~~~-5----|----------0--0--0-----------|
-1--2/-4-----6---------|----------------------------|
-2--4/-6-----7---------|----------------------------|
-----------------------|----------------------------|
-----------------------|---------------------0------|

    sl.
-----------------------|----------------------------|
----------5------------|--7----9--9----------12-10--|
-1--2/-4-----6----4----|--8----9--9---------9--9----|
-2--4/-6-----7----7----|--9----11-11----9-11--------|
-----------------------|-------------/11------------|
-----------------------|----------------------------|

     ~~   h  p p       n.h.   sl
--~~~---------------4--|-2--4-2-0--0---12-----------|
-9---10--12---------5--|---------0-----12-----------|
------------/9---~~----|---------------------11/13--|
---------------11\-----|----------------------------|
-----------------------|----------------------------|
-----------------------|----------------------------|


             A            E         A                  E
When it's through, it's through.  Fate will twist the both of you.
     D                           B
So come on baby, come on over.  Let me be the one to show you.

[MUDANÇA DE TOM]

G  G/A  G/B     G  Cadd9    D        G
Im the  one    who wants to be with you.
G   G/A  G/B  G   Cadd9        D      G
Deep inside   I   hope you'll feel it too.
G   G/A  G/B  G   Cadd9    D        Em
Waited   on   a   line of greens and blues
G  G/A  G/B   G   Cadd9      D          G
just to  be  the  next to    be with   you.


[vOLTA PARA TOM MI]
E   E/F# E/G#    E  Asus2    B        E
I'm the  one    who wants to be with you.
E      E/F# E/G#    E   Asus2        B       E
Deep   inside       I   hope you'll feel it too.
E   E/F# E/G#    E   Asus2    B          C#m
Waited    on     a   line of greens and blues
E     E/F#  E/G#    E   Asus2      B         E
just  to    be     the  next to    be with  you.

E     E/F#  E/G#    E   Asus2      B         E
just  to    be     the  next to    be with  you.


 E  E/F# E/G# E   Asus2      B E
0---0----0---0----0-------|-------------0------|
0---0----0---0----0-------|-4-----------0------|
1---1----1---1----2-------|-4-----------1------|
2---2----2---2----2-------|-4-----------2------|
2---2----2---2----0-------|-2-----------2------|
0---2----4---0------------|-------------0------|

 G  G/A  G/B  G   Cadd9      D G
3---3----3---3----3-------|-2-----------3------|
3---3----3---3----3-------|-3-----------3------|
0---0----0---0----0-------|-2-----------0------|
0---0----0---0----2-------|-0-----------0------|
2---0----2---2----3-------|-0-----------2------|
3------------3------------|-------------3------|
Otros videos de esta canción
    27.297 exhibiciones
      • ½ Tono
      • A
      • Bb
      • B
      • C
      • Db
      • D
      • Eb
      • E
      • F
      • F#
      • G
      • Ab
    • Agregar a la lista

    Afinación de cifrado

    Afinador online

      OK