Cifra Club

Collorado Bulldog

Mr. Big

Cifrado: Principal (guitarra y guitarra eléctrica)
Selo Cifra Club: esta cifra foi revisada para atender aos critérios oficiais da nossa Equipe de Qualidade.
tono: E
Intro:
e|-----------------------------------------------------------|
B|-----------------------------------------------------------|
G|--------4-7-9-------7-9-12--------9-12-14---------12-14-16-|
D|--2h5h7-------5h7h9--------7h9h12---------9h12h14----------|
A|-----------------------------------------------------------|
E|-----------------------------------------------------------|

e|-----------------------------------------------10-12-15----------12-15-17-|
B|-----------------------------12-15-17-------------------10h12h15----------|
G|-----------14-16-19-------------------12h14h16----------------------------|
D|--12h14h17----------14h17h19----------------------------------------------|
A|--------------------------------------------------------------------------|
E|--------------------------------------------------------------------------|

e|--19p17p15----------17p15p12----------15p12p10---------------------------|
B|-----------17-15-12----------15-12-10-------------------17p15p12---------|
G|-----------------------------------------------16-14-12----------14-12-9-|
D|-------------------------------------------------------------------------|
A|-------------------------------------------------------------------------|
E|-------------------------------------------------------------------------|

e|--------------------------------------------------------------------|
B|--15p12p10----------------------------------------------------------|
G|--------------------16p14p12---------14p12p9--------12p9p7----------|
D|-----------17-14-12----------14-12-9---------12-9-7--------9-7-5-7~~|
A|--------------------------------------------------------------------|
E|--------------------------------------------------------------------|

Riff 1: 3x
e|---------------------------------------------------|
B|-10-9~~---10-------------10-9~~----10------10---8--|
G|-7--9~~---9b(11)r(9)-----7--9~~----9b(11)r(9)---7--|
D|-7--9~~------------------7--9~~--------------------|
A|---------------------------------------------------|
E|---------------------------------------------------|

Riff 2:
e|----------------------|
B|-10-9~~----10---------|
G|-7--9~~----9b(11)r(9)-|
D|-7--9~~---------------|
A|----------------------|
E|----------------------|
                                                                     H.A.
e|-----------------------------------------12-14-15-14-12------------------|
B|--------------------------------12-13-15----------------15-13-12---17\---|
G|-----------------------11-12-14------------------------------------------|
D|-------------0-2--4-14---------------------------------------------------|
A|-------0-2-3-------------------------------------------------------------|
E|-0-2-3-------------------------------------------------------------------|

Canto 1:
e|-------|
B|-------|
G|-6/7---|
D|-5/6---|
A|-6/7---|
E|-------|

Canto 2:
e|------------------------------------------|
B|-----5~~-----5----------3--5---------5~~--|
G|--4--4~~--4--4b(5)r(4)--2--4-----4---4~~--|
D|--4-------4----------------------4--------|
A|--2-------2----------------------2--------|
E|------------------------------------------|

e|----------------------------------------------------------|
B|--12----------15----------16------17------18------19------|
G|--14b(16)~~---17b(19)~~---18b(20)-19b(21)-20b(22)-21b(23)-|
D|----------------------------------------------------------|
A|----------------------------------------------------------|
E|----------------------------------------------------------|

Refrao:
e|------------------------------------------------------------------------|
B|------------------------------------------------------------------------|
G|--------9p8p7-----7-----9-------9p8p7-----7---------0-----2-----0-----2-|
D|-0-2--9-------9-7-7--7--9--0-2--------9-7-7--7----2-----4-----2-----4---|
A|---2--------------5--7--7----2------------5--7--3-----5-----3-----5-----|
E|---0-----------------5-------0---------------5--------------------------|

Riff 1:
e|---------------------------------------------------|
B|-10-9~~---10-------------10-9~~----10------10---8--|
G|-7--9~~---9b(11)r(9)-----7--9~~----9b(11)r(9)---7--|
D|-7--9~~------------------7--9~~--------------------|
A|---------------------------------------------------|
E|---------------------------------------------------|

Riff 2:
e|----------------------|
B|-10-9~~----10---------|
G|-7--9~~----9b(11)r(9)-|
D|-7--9~~---------------|
A|----------------------|
E|----------------------|

e|----19-17-15-----------------------------------------------------------|
B|-17----------19-17-15--------------------------------------------------|
G|----------------------17-16-14-----------------------------------------|
D|-------------------------------17-16-14--------------------------------|
A|----------------------------------------17-15-14----------------2-3-5~-|
E|-------------------------------------------------17-15-14-2-3-5--------|

Canto 3:
e|-------|
B|-------|
G|-6/7---|
D|-5/6---|
A|-6/7---|
E|-------|

Canto 4:
e|------------------------------------------|
B|-----5~~-----5----------3--5---------5~~--|
G|--4--4~~--4--4b(5)r(4)--2--4-----4---4~~--|
D|--4-------4----------------------4--------|
A|--2-------2----------------------2--------|
E|------------------------------------------|

e|---------------------------16------17------18------19---------|
B|--12----------15-----------19b(21)-20b(22)-21b(23)-22b(24)----|
G|--14b(16)~~---17b(19)~~---------------------------------------|
D|--------------------------------------------------------------|
A|--------------------------------------------------------------|
E|----------------------------------------------------------x\\-|

Refrao:
e|------------------------------------------------------------------------|
B|------------------------------------------------------------------------|
G|-------9p8p7-----7-----9--------9p8p7-----7---------0-----2-----0-----2-|
D|-0-2---------9-7-7--7--9---0-2--------9-7-7--7----2-----4-----2-----4---|
A|---2-------------5--7--7-----2------------5--7--3-----5-----3-----5-----|
E|---0----------------5---/x\--0---------------5--------------------------|

Riff 3: 2x
e|--------------------------------------------------|
B|--------------------------------------------------|
G|-----------4b(6)----------------4b(6)----2--------|
D|-2-4~~--4--4b(6)-----2--4----4--4b(6)----2---4----|
A|-2-4~~--4------------2--4----4---------------4----|
E|--------------------------------------------------|

Solo:
e|------------------------------------------------------|
B|------------------------------------------------------|
G|------------------------------------------------------|
D|-----2-4----------2-4---------2-4-----2-4-----2-4-----|
A|-2/4----------2/4---------2/4-----2/4-----2/4---------|
E|---------2-2----------2-2-------------------------2-2-|

e|-----------------------------------------------------------|
B|-----------------------------------------------------------|
G|------9-11----------9-11----------9-11------9-11------9-11-|
D|-9/11----------9/11----------9/11------9/11------9/11------|
A|-----------9-9-----------9-9-------------------------------|
E|-----------------------------------------------------------|

e|------------------------------------------------------|
B|------------------------------------------------------|
G|------------------------------------------------------|
D|-----2-4----------2-4---------2-4-----2-4-----2-4-----|
A|-2/4----------2/4---------2/4-----2/4-----2/4---------|
E|---------2-2----------2-2-------------------------2-2-|
                                                                 H.A.
e|-----------------------------------------------------------14--14---|
B|--------------------------------------------------------------------|
G|------9-11----------9-11----------9-11------9-11------9-11----------|
D|-9/11----------9/11----------9/11------9/11------9/11---------------|
A|-----------9-9-----------9-9----------------------------------------|
E|--------------------------------------------------------------------|
          H.A.
e|---------------------------------------------------------------14p12----|
B|--------13-----------15-13-15-15-13----13-------13-15-16-15-13-------13-|
G|-13-14------14-12-14----------------14----12-14-------------------------|
D|------------------------------------------------------------------------|
A|------------------------------------------------------------------------|
E|------------------------------------------------------------------------|

e|-15p12----14-15-17-15----/17~~~~~~--17-15h17p15p14--------------|
B|-------13-------------17---------------------------17-17h19-17--|
G|----------------------------------------------------------------|
D|----------------------------------------------------------------|
A|----------------------------------------------------------------|
E|----------------------------------------------------------------|

e|-15-14h15p14p13p12----12----------12------------------------------------|
B|-------------------15----15p13p12-----15p13p12--15p13p12----------------|
G|---------------------------------------------------------12-14~~~~~~~\\-|
D|------------------------------------------------------------------------|
A|------------------------------------------------------------------------|
E|------------------------------------------------------------------------|

e|-------------------------------------------------------------------------|
B|-------------------------------------------------------------------------|
G|----------14----------------14----------------14----------------14-------|
D|-14-16-17----17-16-14-16-17----17-16-14-16-17----17-16-14-16-17----17-16-|
A|-------------------------------------------------------------------------|
E|-------------------------------------------------------------------------|

e|-------------------------------------------------------------------------|
B|-------------------------------------------------------------------------|
G|----------16----------------16----------------16----------------16-------|
D|-16-17-19----19-17-16-17-19----19-17-16-17-19----19-17-16-17-19----19-17-|
A|-------------------------------------------------------------------------|
E|-------------------------------------------------------------------------|

e|-----------------------------------------------------------|
B|-----------------------------------------------------------|
G|----------17----------------17----------------17--17-19-20-|
D|-17-19-21----21-19-17-19-21----21-19-17-19-21--------------|
A|-----------------------------------------------------------|
E|-----------------------------------------------------------|

e|----------------------------17-----------------19-22-24~~~~~~--|
B|-17----------------17-19-20----20-19-17-19-20------------------|
G|----20-19-17-19-20---------------------------------------------|
D|---------------------------------------------------------------|
A|---------------------------------------------------------------|
E|---------------------------------------------------------------|

Riff 1:
e|---------------------------------------------------|
B|-10-9~~---10-------------10-9~~----10------10---8--|
G|-7--9~~---9b(11)r(9)-----7--9~~----9b(11)r(9)---7--|
D|-7--9~~------------------7--9~~--------------------|
A|---------------------------------------------------|
E|---------------------------------------------------|

Riff 2:
e|----------------------|
B|-10-9~~----10---------|
G|-7--9~~----9b(11)r(9)-|
D|-7--9~~---------------|
A|----------------------|
E|----------------------|

    ~~ ~~ ~~ ~~ ~~ ~~ ~~
e|--13-14-15-16-17-18-19\-|
B|--14-15-16-17-18-19-20\-|
G|------------------------|
D|------------------------|
A|------------------------|
E|------------------------|

Canto 5:
e|-------|
B|-------|
G|-6/7---|
D|-5/6---|
A|-6/7---|
E|-------|

Canto 6:
e|------------------------------------------|
B|-----5~~-----5----------3--5---------5~~--|
G|--4--4~~--4--4b(5)r(4)--2--4-----4---4~~--|
D|--4-------4----------------------4--------|
A|--2-------2----------------------2--------|
E|------------------------------------------|

          T        T        T        T
e|-5h7h8h12p8p7p5-14p8p7p5-12p8p7p5-14p8p7p5\-----|
B|------------------------------------------------|
G|------------------------------------------------|
D|------------------------------------------------|
A|---------------------------------------------/x\|
E|------------------------------------------------|

e|-------------|
B|-------------|
G|-4-4-4-4-----|
D|-4-4-4-4-----|
A|-2-2-2-2-/x\-|
E|-------------|

Refrao:
e|------------------------------------------------------------------------|
B|------------------------------------------------------------------------|
G|-------9p8p7-----7-----9--------9p8p7-----7---------0-----2-----0-----2-|
D|-0-2---------9-7-7--7--9---0-2--------9-7-7--7----2-----4-----2-----4---|
A|---2-------------5--7--7-----2------------5--7--3-----5-----3-----5-----|
E|---0----------------5---/x\--0---------------5--------------------------|

e|--------------------------------------------------------------------|
B|--------------------------------------------------------------------|
G|--------9p8p7-----7-----7h8h9-7h8h9-7h8h9-7h8h9-7h8h9-7h8h9-7h8h9\--|
D|-0-2----------9-7-7--7----------------------------------------------|
A|---2--------------5--7----------------------------------------------|
E|---0-----------------5----------------------------------------------|

e|---------------------------------------------------------|
B|---------------------------------------------------------|
G|-------9p8p7-----7---------0-----2-----0-----2-----0-----|
D|-0-2---------9-7-7--7----2-----4-----2-----4-----2----0--|
A|---2-------------5--7--3-----5-----3-----5-----3---------|
E|---0----------------5------------------------------------|

Riff Final:
e|-----------------------------------------------------------|
B|-----------------------------------------------------------|
G|--------4-7-9-------7-9-12--------9-12-14---------12-14-16-|
D|--2h5h7-------5h7h9--------7h9h12---------9h12h14----------|
A|-----------------------------------------------------------|
E|-----------------------------------------------------------|

e|-----------------------------------------------10-12-15----------12-15-17-|
B|-----------------------------12-15-17-------------------10h12h15----------|
G|-----------14-16-19-------------------12h14h16----------------------------|
D|--12h14h17----------14h17h19----------------------------------------------|
A|--------------------------------------------------------------------------|
E|--------------------------------------------------------------------------|

e|--19p17p15----------17p15p12----------15p12p10---------------------------|
B|-----------17-15-12----------15-12-10-------------------17p15p12---------|
G|-----------------------------------------------16-14-12----------14-12-9-|
D|-------------------------------------------------------------------------|
A|-------------------------------------------------------------------------|
E|-------------------------------------------------------------------------|

e|--------------------------------------------------------------------|
B|--15p12p10----------------------------------------------------------|
G|--------------------16p14p12---------14p12p9--------12p9p7----------|
D|-----------17-14-12----------14-12-9---------12-9-7--------9-7-5-7~~|
A|--------------------------------------------------------------------|
E|--------------------------------------------------------------------|
00:00 / 00:00
Otros videos de esta canción
Repetir
Otros videos de esta canción
3.829 exhibiciones
    • ½ Tono
    • A
    • Bb
    • B
    • C
    • Db
    • D
    • Eb
    • E
    • F
    • F#
    • G
    • Ab
  • Agregar a la lista

Afinación de cifrado

Afinador online

    00:00 / 00:00
    OK