Cifra Club

Seven Impossible Days

Mr. Big

Cifrado: Principal (guitarra y guitarra eléctrica)
Selo Cifra Club: esta cifra foi revisada para atender aos critérios oficiais da nossa Equipe de Qualidade.
tono: D
Intro: D  A  Bm  Bm/A  E7  E  G  A  D  A

D                          A
Sunday morning, out of my mind
 Bm             Bm/A     E7     E
Feel like it's going to waste
 G        A             D   A
25 years, 7 Impossible days
D                          A
Monday morning, I'll never find
Bm              Bm/A     E7     E
Someone with strength to betray
G         A             D     A
25 Years, 7 impossible days

           G        D
People are walking, leaving behind
A                         D
Someone who wants them to stay
           G       D
Everyone's talking out of their minds
Em
See that their gone
                   E        A     Asus4   A
Afraid that their coming to stay

D                          A
Friday morning, got through the grind
Bm              Bm/A     E7     E
Find me a woman who lays
G         A             D       A
My head to bed in 7 impossible ways

Solo Bass (Violão):
   D            A  Bm  Bm/A  E7  E  G  A  D        A
E|-------------------------|------------------------|
B|-------------------------|------------------------|
G|-------------------------|------------------------|
D|-------------------------|-----------------7------|
A|--5-5-5-5-7-5-9-7-5-4----|-9-7-5-5---5-7--9-9-7-7-|
E|----------------------5--|---------7--------------|

E|----------------------------|----------------|
B|----------------------------|----------------|
G|----------------------------|----------------|
D|----------------------------|-----7-9-7------|
A|-9-7-5-5--4-4-4-4-4-5-7-5-5-|--7-9-----9-7-5-|
E|----------------------------|----------------|

           G        D
People are walking, leaving behind
A                         D
Someone who wants them to stay
           G       D
Everyone's talking out of their minds
Em
See that their gone
                   E        A     Asus4   A
Afraid that their coming to stay

D                          A
Sunday morning, out of my mind
Bm              Bm/A     E7     E
Feel like it's going to waste
G         A             D             A
25 years, 7 impossible days

D              A
7 impossible days
7 impossible days
7 impossible days
Otros videos de esta canción
    10.387 exhibiciones
      • ½ Tono
      • A
      • Bb
      • B
      • C
      • Db
      • D
      • Eb
      • E
      • F
      • F#
      • G
      • Ab
    • Agregar a la lista

    Afinación de cifrado

    Afinador online

      OK