Cifra Club

Carousel

Mr. Bungle

Tab de bajo: Principal
ARTIST	- Mr. Bungle
ALBUM	- Mr. Bungle

00.09 - PART A

G |------------------------------|----------------------------------|
D |------------------------------|---0------2-3-3-------------------|
A |-0-5-5-5-4-3-2-0-0-----2------|-0----2-3--------3----------------|
E |------------------4-0----4----|---------------------2-2----------| [x4]

00.37 - PART B
			     [x3]
G |------------------------------|----------------------------------|
D |------0-1h2h3p2p1-------------|------0-1h2h3-1-0-----------------|
A |--2-2-------------3-----------|--2-2--------------3--------------|
E |------------------------------|----------------------------------|


* PART C

G |------------------------------|-----2---1-2-----2---1-2----------|
D |--------------------2h4-2-----|-0-3---3-----0-3---3-----2--------|
A |-------2---1-2----2-----4-3---|----------------------------------| 
E |-0-0-3---3-----03-------------|----------------------------------| [x3]

*[PART A AGAIN- x4]

* PART D

G |------------------------------|----------------------------------------------|
D |------------------------------|----------------------------------------------|
A |----------44-00-33-33---------|----------44-00-33-33-------------------------| 
E |-22-22-11-------------22-22---|-22-22-11-------------22-11-00-11-22-11-00-11-|

* PART E 

G |------------------------------|
D |-----0-1-2-3-2-1--------------|
A |--2-2-------------3-----------|
E |------------------------------| [x3]

02.15 - [PART C AGAIN 3x]

* FILL A
G |------------------------------|
D |------------------------------|
A |--0-0-0-0--7/12-12-12-12------|
E |------------------------------|

* PART F

G |---------------------7-------7-------|------------------------------------|
D |---7---7---5---5---5---6---5-----6---|------------------------------------|
A |-5---5---3---3---5--------5----------|-0-4-7-4----3-6-3--0-4-7-4----3-6-3-|
E |-------------------------------------|----------4-----------------4-------|


G |-----7---------7--------5-------5-----|----------------------------------------------|
D |---5--6------5---6----3---4---3---4---|-0--------2-1---0--0-------2-1----------------|
A |-5---------5--------3-------3---------|---4-0-3------2------4-0-3-----2--------------|
E |--------------------------------------|----------------------------------------------|

* [PART D AGAIN 1x]

* [PART A AGAIN until fade out and circus noise comes in after the 4th time]

TABBED BY Barry Worthington=
00:00 / 00:00
Otros videos de esta canción
Repetir
Otros videos de esta canción
Composición de Mr. Bungle
53 vistas

0 comentarios

Ver todos los comentarios

¿Lograste tocar?

0 Tocaron 0 Aún no

¡Graba un video tocando Carousel y envíanoslo!

00:00 / 00:00
OK