Cifra Club

Borboleta Azul

Mukeka di Rato

Cifrado: Principal (guitarra y guitarra eléctrica)
tono: C
  (2x)
e|-------------------------------|
B|-------------------------------|
G|-------------------------------|
D|---5-9-----5-7-----5-9---7---9-|
A|-7-3-7---7-3-5---7-3-7---5---7-|
E|-5-------5-------5-------------|

e|-------------------------------|
B|-------------------------------|
G|-------------------------------|
D|---5-9-----5-7-----5-9---7---9-|
A|-7-3-7---7-3-5---7-3-7---5---7-|
E|-5-------5-------5-------------|

  como é legal
  passar o resto de nossas vidas
  penando nessa bendita
  colonia penal

  como é legal
  esconder navalha no rabo
  comer como vira-lata
  e apanhar mais que cavalo

e|---|
B|---|
G|---|
D|---|
A|-7-|
E|-5-|

e|-------------------------------|
B|-------------------------------|
G|-------------------------------|
D|---5-9-----5-7-----5-9---7---9-|
A|-7-3-7---7-3-5---7-3-7---5---7-|
E|-5-------5-------5-------------|

  como é legal
  a dieta com lacraias
  baratas e sapos
  e, sortudo, algum rato

  como é legal
  banho de sol com chicotadas
  nadar com tubarões
  nessa ilha abençoada

e|---|
B|---|
G|---|
D|---|
A|-7-|
E|-5-|

e|-------------|
B|-------------|
G|-------------|
D|-----9--8----|
A|-7---7--6--7-|
E|-5---------5-|

  tendo como bóias apenas grilhões
  e profundas mágoas
  tatuado a flor da pele a indeferença e
  o berro de feridas inflamadas

(solo)

e|---------------|
B|---------------|
G|---------------|
D|-----5---7---8-|
A|-7---3---5---6-|
E|-5-------------|

  carregando toras no lombo
  cadáveres sobre o seu ombro

e|----------------|
B|----------------|
G|----------7---8-|
D|-7---10---------|
A|----------------|
E|----------------|

  contendo as pupilas em brasa
  enterrando amigos em covas rasas

e|-------------------------------|
B|-------------------------------|
G|-------------------------------|
D|---5-9-----5-7-----5-9---7---9-|
A|-7-3-7---7-3-5---7-3-7---5---7-|
E|-5-------5-------5-------------|

  so nos resta contemplar
  a borboleta azul
  coloridindo o fim de tardes amargas

  já não sei mais quem somos
  nesta solitária
  pena que não somos lagarta

e|-------------------|
B|-------------------|
G|-------------------|
D|-7---9---7---9-----|
A|-5---7---5---7---7-|
E|-----------------5-|

  nunca teremos casulo
  mas sonhamos com o dia
  em que teremos asas.
Compositor não encontrado.
Colaboración y revisión:
  • Renato Santos
15 vistas
    • ½ Tono
    • A
    • Bb
    • B
    • C
    • Db
    • D
    • Eb
    • E
    • F
    • F#
    • G
    • Ab
  • Agregar a la lista

    0 comentarios

    Ver todos los comentarios

    ¿Lograste tocar?

    0 Tocaron 0 Aún no

    ¡Graba un video tocando Borboleta Azul y envíanoslo!

    00:00 / 00:00
    Outros vídeos desta música
    Repetir Calidad Automático
    Outros vídeos desta música
    00:00 / 00:00
    Automático
    OK