Cifra Club

Cachaça

Mukeka di Rato

Cifrado: Principal (guitarra y guitarra eléctrica)
tono: A
intro:

  (2x)
e|------------------------------------------|
B|------------------------------------------|
G|-9--7-9-79--7-9-79--7-9-79--7-9-7---------|
D|-9--7-9-79--7-9-79--7-9-79--7-9-7---------|
A|----------------------------------9---8-7-|
E|----------------------------------7---6-5-|

e|------------------------------------------|
B|------------------------------------------|
G|-9--7-9-79--7-9-79--7-9-79--7-9-7---------|
D|-9--7-9-79--7-9-79--7-9-79--7-9-7---------|
A|----------------------------------9---8-7-|
E|----------------------------------7---6-5-|

  A cachaça é o ópio do povo brasileiro
  Que mesmo sem trabalho,
  Sem saúde e sem dinheiro
  Se entorpece num gole,
  Se afoga em mais um porre
  Alivia a dor da vida e prepara para morte

e|---------|
B|---------|
G|---------|
D|---------|
A|-7--8--9-|
E|-5--6--7-|

  Sem saúde - Cachaça
  Sem emprego - Cachaça
  Sem futuro - Cachaça
  Sem esperança - Cachaça

  Vou beber - Cachaça
  Pra esquecer - Cachaça
  Meus problemas - Cachaça
  Vão resolver?

  (2x)
e|----------------------------------------|
B|----------------------------------------|
G|-9-9--9-9-9--9-9-9--9-9-9--9-9----------|
D|-9-9--9-9-9--9-9-9--9-9-9--9-9----------|
A|--------------------------------9---8-7-|
E|--------------------------------7---6-5-|

e|---------|
B|---------|
G|---------|
D|---------|
A|-7--8--9-|
E|-5--6--7-|

  Sem saúde - Cachaça
  Sem emprego - Cachaça
  Sem futuro - Cachaça
  Sem esperança - Cachaça

  Vou beber - Cachaça
  Pra esquecer - Cachaça
  Meus problemas - Cachaça
  Vão resolver?

  (2x)
e|---------------------|
B|---------------------|
G|---------------------|
D|-9---9---9-----------|
A|-7---7---7---9--8--7-|
E|-------------7--6--5-|

e|------------------------------------------|
B|------------------------------------------|
G|-9--7-9-79--7-9-79--7-9-79--7-9-7---------|
D|-9--7-9-79--7-9-79--7-9-79--7-9-7---------|
A|----------------------------------9---8-7-|
E|----------------------------------7---6-5-|

  Se todo esse etanol
  que me lubrifica o fígado...
  Petróleo, cana, milho:
  Alimento ou combustível?
Compositor não encontrado.
Colaboración y revisión:
  • Renato Santos
37 vistas
    • ½ Tono
    • A
    • Bb
    • B
    • C
    • Db
    • D
    • Eb
    • E
    • F
    • F#
    • G
    • Ab
  • Agregar a la lista

    0 comentarios

    Ver todos los comentarios

    ¿Lograste tocar?

    2 Tocaron 0 Aún no

    ¡Graba un video tocando Cachaça y envíanoslo!

    00:00 / 00:00
    Outros vídeos desta música
    Repetir Calidad Automático
    Outros vídeos desta música
    00:00 / 00:00
    Automático
    OK