Cifra Club

Aprenda

Tompkins Square Park

Mumford & Sons

Tablatura: Principal (guitarra)
tono: F#
Intro:
E|-------11p9--------|-------11p9---14-13-9~-|
B|----7~------9~-11\-|----7~--------------|
G|--8~---------------|-8~-----------------|
D|------------------|--------------------|
A|------------------|--------------------|
E|------------------|--------------------|

E|-9--11-------------|-9--11--13~-----------|
B|-------11~---------|--------------------|
G|------------------|--------------------|
D|------------------|--------------------|
A|------------------|--------------------|
E|------------------|--------------------|

E|-9--11-------------|--14~----------------|
B|-------11~---------|--------------------|
G|------------------|--------------------|
D|------------------|--------------------|
A|------------------|--------------------|
E|------------------|--------------------|

D#m
(Mantenha pressionado até a bateria entrar)
F# A#m
D#m A#m B


Verso:
F#                  A#m
Oh babe, meet me in Tompkins Square Park
        D#m
I wanna hold you in the dark
         A#m
One last time
              B
Just one last time
    F#                                A#m
And oh babe, can you tell what's on my tongue?
                           D#m
Can you guess that I'll be gone?
        A#m
With the twilight
         B
With the twilight

Refrão: (Guitarra 2)
E|-14--13--11-------|-----11-11----------|
B|------------1-----|--14----------------|
G|------------------|--------------------|
D|------------------|--------------------|
A|------------------|--------------------|
E|------------------|--------------------|
(2X)

B                      D#m      C#
  But no flame burns forever, oh no
                                 B
You and I both know this all too well
                D#m           C#
And most don't even last the night
No they don't, they say they don't


 Verso 2:
F#                   A#m
Oh babe, I've never been so lost
        D#m
I wanna hear you laugh
         A#m
One last time
              B
Just one last time
    F#                                  A#m
But oh babe, I really wish you would not cry
                      D#m
I only ever told you one lie
                          A#m
When it could have been a thousand
                             B
It might as well have been a thousand


Refrão:
B                      D#m       C#
  But no flame burns forever, oh no
                                 B
You and I both know this all too well
                D#m          C#
And most don't even last the night
No they don't, they say they don't
B            D#m             C#
  And we can talk it round again girl
                                  B
Round and round, round and round again
            D#m              C#
Or we could leave it out to die
Leave it out just leave it out


 Ponte: 
G#m                  D#m
  I never tried to trick you babe
                C#
I just tried to work it out
                    G#m
But I was swallowed up by doubt
G#m                    D#m
  If only things were black and white
                     F#
Cause I just want to hold you tight
                        G#m
Without holding back my mind
B
   Without holding back my mind

Base do solo
B D#m C# C#
B D#m C# C#


Refrão:
B                      D#m        C#
  But no flame burns forever, oh no
                                 B
You and I both know this all too well
                D#m           C#
And most don't even last the night
Colaboración y revision:
  • Gabriel Schcar
  • Derek Godoy
  • Milber Júnior
578 reproducciones
    • ½ Tono
    • A
    • Bb
    • B
    • C
    • Db
    • D
    • Eb
    • E
    • F
    • F#
    • G
    • Ab
  • Adicionar à lista

    0 comentarios

    Ver todos os comentários

    ¿Conseguiste tocar?

    4 Tocaram 0 Ainda não

    Grave um vídeo tocando Tompkins Square Park e nos envie!

    00:00 / 00:00
    outros vídeos desta música
    repetir qualidade Automático
    Outros vídeos desta música
    00:00 / 00:00
    Automático
    OK