Cifra Club

Longe Daqui (part: Luan Santana)

Munhoz e Mariano

Cifrado: Principal (guitarra y guitarra eléctrica)
Selo Cifra Club: esta cifra foi revisada para atender aos critérios oficiais da nossa Equipe de Qualidade.
tono: F# (con acordes en la forma de D) Capotraste en 4ª casa
[Intro] D  Bm  G  A
 
               D
E|--3-2--2--0-2--0-2------------------|
B|-------3--3-3--3-3------------------|
G|-------2--2-2--2-2------------------|
D|-------0----------------------------|
A|------------------------------------|
E|------------------------------------|

                Bm
E|--3-2--2--2-2--2-2------------------|
B|-------3--2-3--2-3------------------|
G|-------4--4-4--4-4------------------|
D|-------4--4-4--4-4------------------|
A|-------2--2-2--2-2------------------|
E|-------2--2-2--2-2------------------|
                G
E|--3-2--3--3-3--3-3------------------|
B|-------3--0-3--0-3------------------|
G|-------0--0-0--0-0------------------|
D|-------0--0-0--0-0------------------|
A|-------3--3-3--3-3------------------|
E|-------2--2-2--2-2------------------|
                Gm
E|--3-2--3-----3-----3------------------|
B|-------3--3--3--3--3------------------|
G|-------3--3--3--3--3------------------|
D|-------5--5--5--5--5------------------|
A|-------5-----5-----5------------------|
E|-------3-----3-----3------------------|

 D
Tá com vergonha de mim, tá? 
                               D7M
Tá com medo do que pensam de nós? 
 D
Finge que não tem ninguém aqui 
                                 D7M   D7  Em  F#m
Fale o que você quiser, quero te ouvir! 

G                                 D
     Até quando você vai tentar me negar 
                   A
Se enganar, se esconder de si mesma 
D                                               Bm
    Se prefere eu posso inventar um lugar diferente 
                                                G
Onde não há ninguém pra falar mal da vida da gente 
                          
Eu te levo pra gente se amar 
                        Gm
Eu te levo pra gente se amar 
 G               D
Pra bem longe daqui 
            Bm
Agora se preferir 
                         G
Eu te levo pra gente se amar 
                         Gm
Eu te levo pra gente se amar 
 
Pra bem longe

( G  Em )

C                               G
Até quando você vai tentar me negar 
                   D
Se enganar, se esconder de si mesma 
G                                               Em
    Se prefere eu posso inventar um lugar diferente 
                                                C
Onde não há ninguém pra falar mal da vida da gente 
                          
Eu te levo pra gente se amar 
                        Cm
Eu te levo pra gente se amar 
               
Pra bem longe 
G                                               Em
    Se prefere eu posso inventar um lugar diferente 
                                                C
Onde não há ninguém pra falar mal da vida da gente 
                          
Eu te levo pra gente se amar 
                        Cm
Eu te levo pra gente se amar 
               G
Pra bem longe daqui

            Em
Agora se preferir 
                         C
Eu te levo pra gente se amar 
                         Cm
Eu te levo pra gente se amar 
 Cm
Pra bem longe daquii
Otros videos de esta canción
    120.676 exhibiciones
      • ½ Tono
      • A
      • Bb
      • B
      • C
      • Db
      • D
      • Eb
      • E
      • F
      • F#
      • G
      • Ab
    • Agregar a la lista

    Afinación de cifrado

    Afinador online

      OK