Cifra Club

Pantera Cor De Rosa

Munhoz & Mariano

Tablatura: Principal
reproducciones 225
Tono: A
Intro:

E|------------------------------|
B|------------------------------|
G|------------------------------|
D|------------------------------|
A|-5s7-8s9----9s8-7s5--5s7-8s9--|
E|-5s7-8s9----9s8-7s5--5s7-8s9--|

F#m                 D
Toda produzida, jeitinho de santinha
  A                     E
Ela saiu de casa doida pra perder a linha
   F#m                   D
Me chama pra dançar, eu não to aguentando
  A                  E
Ela ta provocando o Munhoz e Mariano

Bm                       E
Sabe se vestir do jeito que o homem gosta
Bm                         E              E7 Eb7 D7 C#7
Vestido apertadinho da Pantera cor de rosa

Pra quê?

          F#m                                   D7
Padá, padá... Padá... Padá, padá, padá, padá, padá...

Pra dar o que falar!
          F#m                                    
Padá, padá... Padá... Padá, padá, padá, padá, padá...


Solo:  F#m  D7  F#m  

E|--------------------------------------------|
B|--------------------------------------------|
G|---------------------7h6-----6h5------------|
D|---------6p7-----6p7-----6p7-----9-7--------|
A|-5p7-8p9-----8p9---------------------9-7-9--|
E|--------------------------------------------|

E|--------------------------------------------|
B|--------------------------------------------|
G|---------------------7h6--6s11-10-----------|
D|---------6p7-----6p7------------------------|
A|-5p7-8p9-----8p9----------------------------|
E|--------------------------------------------|

(Repete tudo)

(Refrão)  (2x)

F#m
Não importa se é preto, branco, verde ou cor de rosa

                                                 D7
Se for apertadinho pode por que o pai gosta!

E|--------------------------------------------|
B|--------------------------------------------|
G|-9-7----------------------------------------|
D|-----9-7----7-9b10-9b10-9b10-9b10-7---------|
A|---------9--------------------------9-7-9-9-|
E|--------------------------------------------|

(Refrão)  (2x)
Acordes para:

    0 comentarios

      mostrar más comentarios

      ¿Conseguiste tocar?

      16tocaron0aún no

      ¡Graba un vídeo tocando Pantera Cor De Rosa y envianoslo!

      00:00 / 00:00
      outros vídeos desta música
      repetirqualidadeautomática
      Outro vídeos desta música
        00:00 / 00:00
        automática
        OK