Cifra Club

Vai Embora Coração

Munhoz e Mariano

Chords: Principal (acoustic and electric guitars)
tone: B
      B       C#          E     F#    B       C#         E
E|-------------------------|----------------------------|
A|-------------------------|----------------------------|
D|-------------------------|----------------------------|
G|---------1---------1~----|---------------1---------1--|
B|-4/2-2-0---4/2-2-0-------|-------4/2-2-0---4/2-2-0----|
E|-------------------------|----------------------------|

B
Eu já desisti de brigar com você
G#m
Tá difícil de te fazer entender
E                                          B     F#
Você não da bola, e a gente chora outra vez
B
Cada vez que bate aqui dentro de mim
G#m
Traz essa saudade que me deixa assim
E
Meu melhor amigo pra ficar comigo
C#                             F#
Você vai ter que desistir
G#m            F#                 E     (E F# G#m)
Não vê que essa paixão não dá em nada
G#m             F#           E      F#
Que tá gostando da pessoa errada

Refrão
   B            C#
Uoooo ooooooo uoooo
E                    F#
Pula do meu peito e vai embora coração
G#m           C#
Uoooo ooooooo oooo
E                     F#
Porque assim, desse jeito eu não te quero não
  G#m           C#
Uoooo ooooooo uoooo
E                    F#
Pula do meu peito e vai embora coração
G#m           C#
Uoooo ooooooo oooo
E                     F#
Porque assim, desse jeito eu não te quero não


      B        C#           E           F#     (2X)
E|--------------------------------------------------------------------|
A|--------------------------------------------------------------------|
D|--------------------------------------------------------------------|
G|---------1-----------1~-------------------------13~-----------------|
B|-4/2-2-0---4/2-2-0------14/16~-16-14-12-16/14-12--------------------|
E|--------------------------------------------------------------------|


G#m            F#                 E     (E F# G#m)
Não vê que essa paixão não dá em nada
G#m             F#           E      F#
Que tá gostando da pessoa errada

Refrão
   B            C#
Uoooo ooooooo uoooo
E                    F#
Pula do meu peito e vai embora coração
G#m           C#
Uoooo ooooooo oooo
E                     F#
Porque assim, desse jeito eu não te quero não
  G#m           C#
Uoooo ooooooo uoooo
E                    F#
Pula do meu peito e vai embora coração
G#m           C#
Uoooo ooooooo oooo
E                     F#
Porque assim, desse jeito eu não te quero não


      B       C#          E     F#
E|-------------------------|
A|-------------------------|
D|-------------------------|
G|---------1---------1~----|
B|-4/2-2-0---4/2-2-0-------|
E|-------------------------|


  G#m           C#
Uoooo ooooooo uoooo
E                    F#
Pula do meu peito e vai embora coração
G#m           C#
Uoooo ooooooo oooo
E                     F#
Porque assim, desse jeito eu não te quero não
  G#m           C#
Uoooo ooooooo uoooo
E                    F#
Pula do meu peito e vai embora coração
G#m           C#
Uoooo ooooooo oooo
E                     F#                       B
Porque assim, desse jeito eu não te quero não
00:00 / 00:00
Other videos of this song
Repeat
Other videos of this song
46 views
    • ½ Tone
    • A
    • Bb
    • B
    • C
    • Db
    • D
    • Eb
    • E
    • F
    • F#
    • G
    • Ab
  • Add to list

Afinação da cifra

Afinador online

    00:00 / 00:00
    OK