Cifra Club

I Drink The Wine

Murder City Devils

Cifrado: Principal (guitarra y guitarra eléctrica)
Selo Cifra Club: esta cifra foi revisada para atender aos critérios oficiais da nossa Equipe de Qualidade.
tono: E
Intro/Verse:

E||--------------------------------------------------|
B||--------------------------------------------------|
G||--------------------------------------------------|
D||--------------------2--2--2--0--0--0--------------|
A||--0--0--0--3--3--3----------------------3----0----|
E||--------------------------------------------------|


E|----------------------------------------------------|
B|----------------------------------------------------|
G|----------------------------------------------------|
D|----------------------------------------------------|
A|-----------2--2--2--3--3--3--5--5--5--3-----2-------|
E|--3--3--3-------------------------------------------|

Second guitar plays this at :09
E||---------------------------|
B||---------------------------|
G||---------------------------|
D||---------------------------|
A||--12----12----12-----------|
E||--------------------12\----|

Prechorus (0:31):
E||------------------------------------------------------------||
B||------------------------------------------------------------||
G||--2--2--2--2------2--2------2--2----------------2--2--2--2--||
D||--2--2--2--2------2--2------2--2----5--5--5--5--2--2--2--2--||
A||--0--0--0--0--3~--0--0--3~--0--0----5--5--5--5--0--0--0--0--||
E||------------------------------------3--3--3--3--------------|| x4

Chorus (0:51):
E||----------------------------------------------------|
B||----------------------------------------------------|
G||--5--5--5--5----------------2--2--x--x--2--2--x--x--|
D||--5--5--5--5--5--5--5--5----2--2--x--x--2--2--x--x--|
A||--3--3--3--3--5--5--5--5----0--0--x--x--0--0--x--x--|
E||--------------3--3--3--3----------------------------|

E|----------------------------------------------------|
B|----------------------------------------------------|
G|--2--2--x--x--2--2--x--x----5--5--5--5--------------|
D|--2--2--x--x--2--2--x--x----5--5--5--5--5--5--5--5--|
A|--0--0--x--x--0--0--x--x----3--3--3--3--5--5--5--5--|
E|----------------------------------------3--3--3--3--|


E|--------------------------|
B|--------------------------|
G|--------------------------|
D|--3--3--3--3--3--3--3--3--|
A|--3--3--3--3--3--3--3--3--|
E|--1--1--1--1--1--1--1--1--| (x2)

Then repeat:

Verse

Chorus

Bridge  (1:51):

palm mute throughout
E||--------------------------------------------------|
B||--------------------------------------------------|
G||--------------------------------------------------|
D||--5--5--5--5--5--5--5--5--4--4--4--4--4--4--4--4--|
A||--3--3--3--3--3--3--3--3--2--2--2--2--2--2--2--2--|
E||--------------------------------------------------|


E|--------------------------------------------------| |
B|--------------------------------------------------| |
G|--------------------------------------------------| |
D|--2--2--2--2--2--2--2--2--2--2--2--2--2--2--2--2--| |
A|--0--0--0--0--0--0--0--0--0--0--0--0--0--0--0--0--| |
E|--------------------------------------------------| | (x2)

E||----------------------------------|-----------------------------|
B||----------------------------------|-----------------------------|
G||----------------------------------|-----------------------------|
D||---10--10--10--10--10--10--10--10--|--9--9--9--9--9--9--9--9----|
A||---8---8---8---8---8---8---8---8--|--7--7--7--7--7--7--7--7-----|
E||----------------------------------|-----------------------------|


E|--------------------------|--------------------------|
B|--------------------------|--------------------------|
G|--------------------------|--------------------------|
D|--5--5--5--5--5--5--5--5--|--4--4--4--4--4--4--4--4--|
A|--3--3--3--3--3--3--3--3--|--2--2--2--2--2--2--2--2--|
E|--------------------------|--------------------------|

                                                   un palm mute and let ring
E|--------------------------|--------------------------|-----| |
B|--------------------------|--------------------------|-----| |
G|--------------------------|--------------------------|--2--| |
D|--5--5--5--5--5--5--5--5--|--4--4--4--4--4--4--4--4--|--2--| |
A|--3--3--3--3--3--3--3--3--|--2--2--2--2--2--2--2--2--|--0--| |
E|--------------------------|--------------------------|-----| |

Verse

Chorus

End on
E||-------||
B||-------||
G||--2----||
D||--2----||
A||--0----||
E||-------||
Otros videos de esta canción
    0 exhibiciones
      • ½ Tono
      • A
      • Bb
      • B
      • C
      • Db
      • D
      • Eb
      • E
      • F
      • F#
      • G
      • Ab
    • Agregar a la lista

    Afinação da cifra

    Afinador online

      Ops (: Contenido disponible solo en portugués.
      OK