Cifra Club

blockades

Muse

Cifrado: Principal (guitarra y guitarra eléctrica)
Quer fazer aulas de música com a gente? Responda essas perguntas
e nos ajude nesse projeto! →
tono: G
[Intro] Dm  Dm  F  A

D5                          D5                  F5
The truth is like when i am killing in order to survive
       A5                    D5
I have never felt so alive
     D5                F5                  A5
I am always seeking to live and die on the edge
D5                   D5                   F5
Life is a broken simulation i'm unable to feel
        A5                         D5
I'm searching for something that's real
     D5                F5                    A5  
I am always seeking to see what's behind the veil

Gm      Dm   A              Dm
Trapped in a maze of unseen walls
      Gm  Dm         A
These blockades must fall

D5     C5
Crush, crush
G5          D5
Where's the rush?
C5     Bb5            A5
Seize, fight for your life
D5     C5
Smash, test
G5       D5
Beat the best
G5             A5
Fight for your life
A5
You've been summoned now

[solo]

E|-----------------------------------------------------------------|
B|-----------------------------------------------------------------|
G|--7~~~~\----10----9--7--6h7p6h7p6h7p6h7p6h7p6h7p6\---------------|
D|-----------------------------------------------------------------|
A|-----------------------------------------------------------------|
E|-----------------------------------------------------------------|

Dm                  Dm
I never sleep or rest
                            F
But i'm still running out of time
       A
I have sacrificed all of my life
    Dm               
The time has come to
   Dm                    F
To prove to you what i'm worth

Gm      Dm   A              Dm
Trapped in a maze of unseen walls
      Gm  Dm         A
These blockades must fall

[chorus]
D5     C5
Crush, crush
G5          D5
Where's the rush?
C5     Bb5            A5
Seize, fight for your life
D5     C5
Smash, test
G5       D5
Beat the best
G5             A5
Fight for your life
A5
You've been summoned now

[solo]

E|-----------------------------------------------------------------|
B|-------11--10--8--11----11--10--8--------------------------------|
G|-----------------------------------9----9h10h12--10--9--7h9h7\---|
D|-----------------------------------------------------------------|
A|-----------------------------------------------------------------|
E|--4b7\0----------------------------------------------------------|

E|-----------------------------------------------------------------|
B|-----------------------------------------------------------------|
G|-7h9h10--9--7--5----10--9--7--6----------------------------------|
D|-----------------------------------------------------------------|
A|-----------------------------------------------------------------|
E|-----------------------------------------------------------------|

E|------------------5h6--------------------------------------------|
B|--------------5h6------------------------------------------------|
G|----------6h7----------------------------------------------------|
D|------6h7--------------------------------------------------------|
A|--6h7------------------------------------------------------------|
E|-----------------------------------------------------------------|

    t             t            t              t                t                 
E|--10p5h6p5--x8--8p5h6p5--x4--12p9h10p9--x4--13p10h12p10--x8------|
B|-17p13h15p13--x4--17p12h13p12------------------------------------|
B|-----------------------------------------------------------------|
G|-----------------------------------------------------------------|
D|-----------------------------------------------------------------|
A|-----------------------------------------------------------------|
D|-----------------------------------------------------------------|

D5     C5
Crush, crush
G5          D5
Where's the rush?
C5     Bb5            A5
Seize, fight for your life
D5     C5
Smash, test
G5       D5
Beat the best
G5             A5
Fight for your life
A5
You've been summoned now
Composición de Matthew Bellamy
Colaboración y revisión:
  • vultkan mf
15 vistas
    • ½ Tono
    • A
    • Bb
    • B
    • C
    • Db
    • D
    • Eb
    • E
    • F
    • F#
    • G
    • Ab
  • Agregar a la lista

    0 comentarios

    Ver todos los comentarios
    00:00 / 00:00
    Outros vídeos desta música
    Repetir Calidad Automático
    Outros vídeos desta música
    00:00 / 00:00
    Automático
    OK