Cifra Club

Overdue

Muse

Cifrado: Principal (guitarra y guitarra eléctrica)
Selo Cifra Club: esta cifra foi revisada para atender aos critérios oficiais da nossa Equipe de Qualidade.
tono: D
Intro:

E|E|---------------|
B|E|---------------|
-6-6-7-7-6-4-6-|
-5-5-5-5-5-5-5-|
-7-7-7-7-7-7-7-|
E|---------------|

A
--------------E|---------------|-----------E|---------------|---------E|---------------|
--------------E|---------------|-----------E|---------------|---------E|---------------|
-2--7-7-7-5--X-X-6-6-66-6-X-X|-2-7-7-7-5-X-6-6-6-6-6b76-|-2-7-7-7-5-X-X-6-6-66-6-|
-2-----------X-X----------X-X|-2---------X--------------|-2---------X-X----------|
-0--5-5-5-3--X-X-4-4-44-4-X-X|-0-5-5-5-3-X-4-4-4-4-4----|-0-5-5-5-3-X-X-4-4-44-4-|
--------------E|---------------|-----------E|---------------|---------E|---------------|

-----E|---------------|
-------------3------|
-2--7-7-7-5--2------|
-2-----------0------|
-0--5-5-5-3---------|
-----E|---------------|

Verse:


---------0-------|---------0-------|---------0-------|-0--0-----0--|
-----1-----1---1-|-----1-----1---1-|-----1-----1---1-|-1--0--3--1--|
---2---2-----2---|---2---2-----2---|---2---2-----2---|-2--2--0--2--|
-3E|---------------|-2E|---------------|-3E|---------------|-2--2--0--3--|
--E|---------------|--E|---------------|--E|---------------|-0--0--2-----|
--E|---------------|--E|---------------|--E|---------------|-------3-----|

Bridge:


------------------------------------------------------E|---------------|
-1-1-X-X-1-1-1-X-X-X-X-X-1-X-1--1-1-1--0-0-0-0-0-0-0-0-0-0-0-0-0-0-0-|
-2-2-X-X-2-2-2-X-X-X-X-X-2-X-2--2-2-2--2-2-2-2-2-2-2-1-1-1-1-1-1-1-1-|
-3-3-X-X-3-3-3-X-X-X-X-X-3-X-3--3-3-3--2-2-2-2-2-2-2-2-2-2-2-2-2-2-2-|
-3-3-X-X-3-3-3-X-X-X-X-X-3-X-3--3-3-3--2-2-2-2-2-2-2-2-2-2-2-2-2-2-2-|
------------------------------------------------------E|---------------|

Chorus:

A - G - D X4

A

And yet another fantastic muse song tabed by me.
 I will try and some more up as i have noticed the
lack of muse tab on the web.......so stay tuned!
Otros videos de esta canción
    36 exhibiciones
      • ½ Tono
      • A
      • Bb
      • B
      • C
      • Db
      • D
      • Eb
      • E
      • F
      • F#
      • G
      • Ab
    • Agregar a la lista

    Afinación de cifrado

    Afinador online

      OK