Cifra Club

Pebleu Apaixonado

Musical San Francisco

Cifrado: Principal (guitarra y guitarra eléctrica)
tono: B
B                  G#m
Como explicar um amor feito novela
E                       F#
Eu sou plebeu e você é minha cinderela
B                          G#m
Passou da meia noite que a lua ta tão bela
E                       F#            B
Eu sou plebeu e você é minha cinderela

Intro.:G#m F# B E F# E F# B

E|------------------16~--------|----------------15r14b15--|
B|--------16-17-19-------------|----------16-17-----------|
G|-/16-18----------------16-15-|-15-16-18-----------------|
D|-----------------------------|--------------------------|
A|-----------------------------|--------------------------|
E|-----------------------------|--------------------------|

B                  G#m
Como explicar um amor feito novela
E                       F#
Eu sou plebeu e você é minha cinderela
B                          G#m
Passou da meia noite que a lua ta tão bela
E                       F#            B
Eu sou plebeu e você é minha cinderela
                      ↑solo começa
E|---------------------|
B|--4------------------|
G|----6-4-3------------|
D|----------6~~---6-4--|
A|---------------------|
E|---------------------|

B                                 G#m
Eu queria ser o seu príncipe encantado
                     E                  C#m
Te levar pro meu castelo, te cobrir de jóias,
            F#
Te fazer a minha princesa
B                      G#m
Viver a maior paixão do mundo,
                    E                 C#m
Mas só posso oferecer o amor de um plebeu
               F#
E o coração de um vagabundo

E|------------------4--|
B|--7-5-4---5-4-----4--|
G|--------6----6-4--4--|
D|------------------6--|
A|------------------6--|
E|------------------4--|

             G#m
Não tenho diamantes nem colar de ouro
                  E
Pra mim o nosso amor é o maior tesouro
   C#m                     E            F#      F#7
Não existe um casal mais apaixonado que nós dois

B                  G#m
Como explicar um amor feito novela
E                       F#
Eu sou plebeu e você é minha cinderela
B                          G#m
Passou da meia noite que a lua ta tão bela
E                       F#           B
Eu sou plebeu e você é minha cinderela


Repete a partir do "Eu queria ser o seu príncipe encantado...”

No final repete o solo principal, com esse encerramento:

E|----------9-12---------11-12/14-12--|
B|--/10-12--------/12-14--------------|
G|------------------------------------|
D|------------------------------------|
A|------------------------------------|
E|------------------------------------|
00:00 / 00:00
Otros videos de esta canción
Repetir
Otros videos de esta canción
Compositor no encontrado.
Colaboración y revisión:
  • Giovani Scalcon
  • Rafael Santos
101 vistas
    • ½ Tono
    • A
    • Bb
    • B
    • C
    • Db
    • D
    • Eb
    • E
    • F
    • F#
    • G
    • Ab
  • Agregar a la lista

    0 comentarios

    Ver todos los comentarios
    00:00 / 00:00
    OK