Cifra Club

Skankin By Numbers

Mustard Plug

Tab de bajo: Principal
Album:Big Daddy multitude on MOON SKA 
tabbed by:Tony B. 
G:--------------------------------------------------------------- 
D:--------------------------------------------------------------- 
A:--------- ------------------------------------------------------ 
E:- ----3-----33---------333---------3333------------------------------- 
0ne... two ....3......4....... 

Verse 
G:--------------------------------------------------------------- 
D:--------------------------------------------------------------- 

A:--------1111----0000------3333--------------------------------------------- 
E:--3333------------------------------------------------------------- 

Chorus 
G:--------------------------------------------------------------- 
D:--------------------------------------------------------------- 
A:---------------------032---------------------------0--------------- 

E:---------333333------------------333333-----------------32------------------- 
A couple o’ time 
The end 
G:----- ---------------------------------------------------------- 
D:--------------------------------------------------------------- 
A:-----------------------------7-5-3-4-3-5-7---------------------------- 
E:--------------------------------------------------------------- 
  

I hope it’s right because i do it in my head 
Tony 
  
00:00 / 00:00
Otros videos de esta canción
Repetir
Otros videos de esta canción
Composición de Mustard Plug
6 exhibiciones
00:00 / 00:00
OK