Cifra Club

You

Mustard Plug

Cifrado: Principal (guitarra y guitarra eléctrica)
tono: Bb
This song is tabbed out from beginning to end for you where you dont have to backtrack.
tabbed by blltprf mss gy

r=rest

G|--------|--------|--------|--------|
D|--------|--------|--------|--------|
A|--------|5-r---5-|6-r---6-|8-r-----|
E|6-r---6-|--------|--------|--------|

G|--------|--------|--------|--5------|
D|--------|--------|--56865-|------878| x4
A|-------5|5-5-5-5-|6------8|---------|
E|6-6-6-6-|--------|--------|---------|

G|--------|--------|---------|---------|
D|--------|--------|---------|---------| x2
A|-------8|8-8-8-86|--------6|6-6-6-6--|
E|6-6-6-6-|--------|8-8-8-8--|--------6|

G|---------|--------|
D|---------|--------| x3
A|--------6|--66666-|
E|3-33333--|--------|

G|--------|---------|
D|-------3|-3335533-|
A|5-55555-|---------|
E|--------|---------|

G|--------|--------|--------|--------|
D|--------|--------|--------|--------| x2
A|-------5|-5555555|-------6|--666666|
E|6666666-|--------|3-3-333-|--------|

G|--------|--------|--------|--------|
D|--------|--------|--------|--------| x2
A|-------5|-5555555|-------6|--666666|
E|r-6-666-|--------|3-3-333-|--------|

G|--------|--------|--------|--5------|
D|--------|--------|--56865-|------878| x4
A|-------5|5-5-5-5-|6------8|---------|
E|6-6-6-6-|--------|--------|---------|

G|--------|--------|---------|---------|
D|--------|--------|---------|---------| x2
A|-------8|8-8-8-86|--------6|6-6-6-6--|
E|6-6-6-6-|--------|8-8-8-8--|--------6|

G|---------|--------|
D|---------|--------| x3
A|--------6|--66666-|
E|3-33333--|--------|

G|--------|---------|
D|-------3|-3335533-|
A|5-55555-|---------|
E|--------|---------|

G|--------|--------|--------|--------|
D|--------|--------|--------|--------| x2
A|-------5|-5555555|-------6|--666666|
E|6666666-|--------|3-3-333-|--------|

G|--------|--------|--------|--------|
D|--------|--------|--------|--------| x2
A|-------5|-5555555|-------6|--666666|
E|r-6-666-|--------|3-3-333-|--------|

-pause-
(horns and drums)

G|--------|--------|--------|--5------|
D|--------|--------|--56865-|------878| x4
A|-------5|5-5-5-5-|6------8|---------|
E|6-6-6-6-|--------|--------|---------|

G|--------|--------|---------|---------|
D|--------|--------|---------|---------| x2
A|-------8|8-8-8-86|--------6|6-6-6-6--|
E|6-6-6-6-|--------|8-8-8-8--|--------6|

G|---------|--------|
D|---------|--------| x3
A|--------6|--66666-|
E|3-33333--|--------|

G|--------|---------|
D|-------3|-3335533-|
A|5-55555-|---------|
E|--------|---------|

G|--------|--------|--------|--------|
D|--------|--------|--------|--------| x2
A|-------5|-5555555|-------6|--666666|
E|6666666-|--------|3-3-333-|--------|

G|--------|--------|--------|--------|
D|--------|--------|--------|--------| x2
A|-------5|-5555555|-------6|--666666|
E|r-6-666-|--------|3-3-333-|--------|

G|--------|--------|
D|--------|--------|
A|----8886|-666556-|
E|6-66----|--------|

G|--------|---------|
D|--------|---------| x3
A|----8886|-66665-6-|
E|6666----|---------|

G|--------||
D|--------||
A|--------||
E|6-r-----||


| /  slide up
| \  slide down
| h  hammer-on
| p  pull-off
| ~  vibrato
| +  harmonic
| x  Mute note
00:00 / 00:00
Otros videos de esta canción
Repetir
Otros videos de esta canción
Compositor no encontrado.
23 exhibiciones
    • ½ Tono
    • A
    • Bb
    • B
    • C
    • Db
    • D
    • Eb
    • E
    • F
    • F#
    • G
    • Ab
  • Agregar a la lista
    00:00 / 00:00
    OK