Cifra Club

Baby

Os Mutantes

Tab de bajo: Principal
[Intro]

G|---5-----------2-5-2-|--5-----------2-5-2-|--5-----------2-5-2-|
D|----5-2--5-2-3-------|---5-2--5-2-3-------|---5-2--5-2-3-------|
A|-3-------------------|-3------------------|-3------------------|
E|---------------------|--------------------|--------------------|

[Parte 1]

G|---5-----------2-5-2-|--5-----------2-5-2-|--5------------2-5-2-|
D|----5-2--5-2-3-------|---5-2--5-2-3-------|---5-2--5-2-3--------|
A|-3-------------------|-3------------------|-3-------------------|
E|---------------------|--------------------|---------------------|

[Parte 2]

G|---5-----------2-5-2-|--5------------2-5-2-|
D|----5-2--5-2-3-------|---5-2--5-2-3--------|
A|-3-------------------|-3-------------------|
E|---------------------|---------------------|

[Refrão] 00:46

G|--5-----------|------------|--7----|-------|-----------------|
D|---5--2-5-6-7-|----7-------|-7-7---|-7-6-5-|------5--5-------|
A|-3------------|-7-7--7-6-5-|-----5-|-------|-5---5--5--5-4-3-|
E|--------------|--5---------|-------|-------|--3--------------|

  00:56
G|--5---|-----------|--------|--7---|-------|--------|---|
D|-5-5--|-5-7—77--7-|--7--7--|-7-7--|-7-6-5-|---5----|-5-|
A|----3-|-----------|-7-6--5-|----5-|-------|--------|---|
E|------|-----------|--------|------|-------|-33--33-|---|

[Parte 3]  01:06

                                         Variação 
G|---5-------------|--5------------2-5-2-|------------2-5-2-|
D|--5-5--5-3-2-----|---5-2---5-2-3-------|--------2--3------|
A|-3----3------5---|-3-------------------|-3---3-5-3--------|
E|---------------3-|---------------------|----3-------------|

G|-------------2-5-2-|---5------------------|
D|--------2--3-------|----5-2---5-2-3--2----|
A|-3---3-5--3--------|-3----------------5---|
E|----3--------------|--------------------3-|

[Refrão] 01:31

G|--5------------|-------|------|--7----|-------|-------|---------|
D|---5---2-5-6-7-|-----7-|------|-7-7---|-7-6-5-|--5--5-|--5--5---|
A|-3-------------|-7--7--|-77-5-|-----5-|-------|-5--5--|-5--4--3-|
E|---------------|--5----|------|-------|-------|-------|---------|

G|--5---|------------|---------|--7---|-------------12-|
D|-5-5--|-5-6-7--777-|--7--7---|-7-7--|-7-6-5--55-5----|
A|----3-|------------|-7--6--5-|----5-|----------------|
E|------|------------|---------|------|----------------|

[Parte 04] 01:31    

G|---5-------------|--5-----------2-5-2-|---------------------|
D|--5-5---5-3-2----|---5-2--5-2-3-------|--------2-3--333-4-5-|
A|-3---3--------5--|-3------------------|-3--33-5-------------|
E|---------------3-|--------------------|--3------------------|

G|---5------------------|
D|--5-5---5-3-2---------|
A|-3-----3-------5------|
E|------------------333-|

[Parte 05] 02:10
 
G|--5-----------2-5-2-|-----------------2-5-2-|---------------2-5-2-|
D|---5-2--5-2-3-------|--------2-5-2-3--------|--------2--5-3-------|
A|-3------------------|-3--3-5--3-------------|-3---3-5-3-----------|
E|--------------------|---3-------------------|----3----------------|


G|--5-------------------|---55--------------|
D|---5-2---5-22-3-2-----|-----5--5-3-22-----|
A|-3----------------5---|-3----3--------5---|
E|--------------------3-|-----------------3-|

[Parte 06] 02:34 

G|---5-----------2-5-2-|--5-----------2-5-2-|
D|----5-2--5-2-3-------|---5-2--5-2-3-------|
A|-3-------------------|-3------------------|
E|---------------------|--------------------|

[Refrão] 02:44

                              Variação
G|---------|-------|-------|---------------|-------|-------|
D|-----5---|-5-6-7-|-----7-|---------------|--5--5-|--5-5--|
A|-3--3--3-|-------|-7-7---|-7-6-5-3-------|-5--5--|-5-4-3-|
E|---------|-------|--5----|---------5-4-3-|-------|-------|

                                                Virada rápida
G|----5----|------------|-------|------------|-------------|
D|---5-5---|-5/77--77-7-|--7-7--|-7-6-55--55-|-5-3---------|
A|-3-----3-|------------|-7-6-5-|------------|----5----5-3-|
E|---------|------------|-------|------------|------3------|

                                                   Virada rápida                                          
G|--5----|--------|------|-------|--7-----|--------|-------------|
D|-5-5---|-5-6-77-|-77-7-|--7-7--|-7-7--7-|-55--55-|-5-3---------|
A|-----3-|--------|------|-7-6-5-|-----5--|--------|----5----5-3-|
E|-------|--------|------|-------|--------|--------|------3------|

[Final]

G|--5----|-------|------|---------|--7-------|----------|-----------|
D|-5-5---|-5-6-7-|-77-7-|--7------|-7-7--7-5-|-7-55--55-|-----------|
A|-----3-|-------|------|-0-0-6-5-|-----5----|----------|-5---5-4-3-|
E|-------|-------|------|---------|----------|----------|---33------|

G|--5-----------------|---------|--7-------|------|--------|
D|-5-55--55--77--77-7-|--7------|-7-7--7-5-|-55-5-|--5-5---|
A|------3-------------|-0-0-6-5-|-----5----|------|-5-4--3-|
E|--------------------|---------|----------|------|--------|
00:00 / 00:00
Otros videos de esta canción
Repetir
Otros videos de esta canción
Composición de Caetano Veloso
Colaboración y revisión:
  • marcos lima
18 vistas

0 comentarios

Ver todos los comentarios

¿Lograste tocar?

0 Tocaron 0 Aún no

¡Graba un video tocando Baby y envíanoslo!

00:00 / 00:00
OK