Cifra Club

Never Say Goodbye

My Bloody Valentine

Cifrado: Principal (guitarra y guitarra eléctrica)
Selo Cifra Club: esta cifra foi revisada para atender aos critérios oficiais da nossa Equipe de Qualidade.
tono: E
Intro/Chorus X2 (With fuzz)
E|-----------------|
B|-----------------|
G|-----------------|
D|--7--12--12--12--|
A|--7--12--12--12--|
E|--5--10--9---10--|


Clean guitars in Intro/chorus: 

     |x4|x1|x1|x1|x4 |x2|           |x4|x1|x1|x1|x1 |x2|x2|
F#|--|--|--|--|--|---|--|-|    F#|--|--|--|--|--|---|--|--|-|
C#|--|7-|5-|0-|5/|12\|10|-|    C#|--|--|--|--|--|5h7|7-|5-|-|
A |--|--|--|--|--|---|--|-|    A |--|4-|0-|--|0-|0-0|0-|0-|-|
E |--|--|--|--|--|---|--|-|    E |--|--|--|4-|--|0-0|0-|0-|-|
B |--|--|--|--|--|---|--|-|    B |--|--|--|--|--|x-x|x-|x-|-|
F#|--|--|--|--|--|---|--|-|    F#|--|--|--|--|--|x-x|x-|x-|-|
       

verses:

Fuzz:                    Clean:
E|--------------------| F#|--5--5--5--|
B|--------------------| C#|--5--5--5--|
G|--------------------| A |--0--4--0--|
D|--7--9--12--12--12--| E |--0--4--4--|
A|--7--9--12--12--12--| B |--4--0--5--|
E|--5--7--10--9---10--| F#|--5--x--x--|



Prechorus:

Fuzz:                
E|-----------------|
B|-----------------|
G|-----------------|
D|--7--12--12--12--|
A|--7--12--12--12--|
E|--5--10--9---10--|
Otros videos de esta canción
    9 exhibiciones
      • ½ Tono
      • A
      • Bb
      • B
      • C
      • Db
      • D
      • Eb
      • E
      • F
      • F#
      • G
      • Ab
    • Agregar a la lista

    Afinación de cifrado

    Afinador online

      OK