Cifra Club

Dead Solo

My Chemical Romance

Cifrado: Principal (guitarra y guitarra eléctrica)
Já pensou em usar uma coleção de roupas do Cifra Club? Responda as perguntas abaixo e nos ajude nessa missão! →
tono: G
    If you want the entire tab you should use f1f2's version because I think 
the right one. I did this solo tab only because I thought some of the things in his was wrong. So it is:

e|-----------------------------------------------------------------------------------------|
B|------------5-3b5~-3---3-5-8-8-------------------------------------------10-7------------|
G|-----44-5-7----------5---------4-5p4-4-5p4-4-5p4------------------------------9-8-7------|
D|-5-5-------------------------------------------------7p5-5-7p5-5-7p5----------------10---|
A|-------------------------------------------------5-3-----------------------------------6-|
E|---------------------------------------------------------------------5-3-----------------|

e|-----------------------------------7-------------7-----|17p15----19p15----(x4)----------|
B|-5-b5-5-b5-5-b5-5-b5-----------7-8---8-------7-8--8-15-|------15-------15---------------|
G|-7-b7-7-b7-7-b7-7-b7p5-4-5/7h9---------5/7h9-----------|--------------------------------|
D|-------------------------------------------------------|--------------------------------|
A|-------------------------------------------------------|--------------------------------|
E|-------------------------------------------------------|--------------------------------|

e|-20p15----19p15----17p15----19p15----19-17-15-----15-----15-|
B|-------15-------15-------15-------15----------b18----b18----|
G|------------------------------------------------------------|
D|------------------------------------------------------------|
A|------------------------------------------------------------|
E|------------------------------------------------------------|
Compositor não encontrado.
521 vistas
    • ½ Tono
    • A
    • Bb
    • B
    • C
    • Db
    • D
    • Eb
    • E
    • F
    • F#
    • G
    • Ab
  • Agregar a la lista

    0 comentarios

    Ver todos los comentarios

    ¿Lograste tocar?

    1 Tocaron 1 Aún no

    ¡Graba un video tocando Dead Solo y envíanoslo!

    00:00 / 00:00
    Outros vídeos desta música
    Repetir Calidad Automático
    Outros vídeos desta música
    00:00 / 00:00
    Automático
    OK