Cifra Club

Aprenda

Famous Last Words

My Chemical Romance

Tablatura: Principal (guitarra)
tono: D
Introdução:
Onde tem o "." (ponto) em cima, faça PALM MUTE

Gtr 1:
G|--7-7-x-x-x-x-x-x-x-x-x-x-x-x-x-x-x-x-x-x-x-x-x---------------------------------
D|--7-7-7-7-7-7-7-7-7-5-5-5-3-3-3-3-3-3-3-3-2-2-2-x-x-x-x-x-x-x-x-x-x-x-x-x-x-x-x-
A|--5-5-5-5-5-5-5-5-5-3-3-3-1-1-1-1-1-1-1-1-0-0-0-5-5-7-7-5-5-5-5-7-7-7-7-7-7-7-7-
E|------------------------------------------------3-3-3-3-3-3-3-3-5-5-5-5-5-5-5-5-
PM|     . . . . . . . . . . . . . . . . . . . . . . . . . . . . . . . . . . . . . 

G|------------------------------------------|
D|--x-x-x-x-x-x-x-x--x--x--x--x--x--x--x--x-|
A|--8-8-8-8-8-8-8-8-10-10-10-10-10-10-10-10-|
E|--6-6-6-6-6-6-6-6--8--8--8--8--8--8--8--8-|   
PM| . . . . . . . .  .  .  .  .  .  .  .  .

G|--7-7-x-x-x-x-x-x-x-x-x-x-3-3-x-x-x-x-x-x-x-x-x---------------------------------
D|--7-7-7-7-7-7-7-7-7-5-5-5-3-3-3-3-3-3-3-3-2-2-2-5-5-x-x-x-x-x-x-x-x-x-x-x-x-x-x-
A|--5-5-5-5-5-5-5-5-5-3-3-3-1-1-1-1-1-1-1-1-0-0-0-5-5-7-7-5-5-5-5-7-7-7-7-7-7-7-7-
E|------------------------------------------------3-3-3-3-3-3-3-3-5-5-5-5-5-5-5-5-
PM|     . . . . . . . . . .     . . . . . . . . .     . . . . . . . . . . . . . . 

Gtr 2 faz isso acompanhando, deixando soar:
G|--------------------12*------|
D|--7*-------------------------|
A|--------------------------7*-|
E|-----------------------------|

Gtr 1:
G|------------------------------------------|
D|--8-8-8-8-8-8-8-8-10-10-10-10-10-10-10-10-|
A|--8-8-8-8-8-8-8-8-10-10-10-10-10-10-10-10-|
E|--6-6-6-6-6-6-6-6--8--8--8--8--8--8--8--8-|   
PM|     . . . . . .  .  .  .  .  .  .  .  .

                                  |Gtrs 1 e 2:
G|--7-7------3-----7-7------3-6-3-|--7-7------3----7-7-7-7-7-7-7-|
D|--7-7-5-3-5-5-3--7-7-5-3-5------|--7-7-5-3-5-5-3-7-7-7-7-7-7-7-|
A|--5-5------------5-5------------|--5-5-----------5-5-5-5-5-5-5-|
E|--------------------------------|------------------------------|

Verso:

Gtr 1:
G|--7-7-7-7-7-7-7-5-5-5-3-3-3-3-3-3-3-3-2-2-2---------------------------------
D|--7-7-7-7-7-7-7-5-5-5-3-3-3-3-3-3-3-3-2-2-2-5-5-5-5-5-5-5-5-7-7-7-7-7-7-7-7-
A|--5-5-5-5-5-5-5-3-3-3-1-1-1-1-1-1-1-1-0-0-0-5-5-5-5-5-5-5-5-7-7-7-7-7-7-7-7-
E|--------------------------------------------3-3-3-3-3-3-3-3-5-5-5-5-5-5-5-5-

G|------------------------------------------|
D|--8-8-8-8-8-8-8-8-10-10-10-10-10-10-10-10-|
A|--8-8-8-8-8-8-8-8-10-10-10-10-10-10-10-10-|
E|--6-6-6-6-6-6-6-6--8--8-8---8--8--8--8--8-|   2X

Gtr 2 (ouça a música para pegar o tempo das notas)
G|--7-10-9--7-10-12--7--9-10-12-10|--7-10-9--7-10-12--7--9-10-9-12-|
D|--x--x-x--x--x--x--x--x--x--x--x|--x--x-x--x--x--x--x--x--x-x--x-|
A|--5--8-7--5--8-10--5--7--8-10--8|--5--8-7--5--8-10--5--7--8-7-10-|
E|--------------------------------|--------------------------------|

REFRÃO:
Gtr 1:  F5 E5 D5 A5 Bb5 C5 G5 D5

Gtr 2:
G|--14-12--14-12---10-12--10-9-12|
D|---x--x---x--x----x--x---x-x--x|
A|--12-10--12-10----8-10---8-7-10|      2X
E|-------------------------------|

VERSO 2:
A base fica igual ao 1° verso (gtr 1)

Gtr 2:
B|----------------11----|---------------11-13-11|--------------11-----|--------------11-13-11|
G|--12-12-12-10-12-12-10|-12-12-12-10-12--------|12-12-12-10-12--12-10|12-12-12-10-12--------|

B|-------------11-----|---------------13-----|------------------------|-----------------------|
G|--12-12-12-10--12-10|-14-14-14-12-14--14-12|-15-15-15-13-15-16-15-13|-16-15-13-11-13-11-10-8|   2X

Repete refrão

SOLO (só sei a base): gtr 2: D5  C5  Bb5 A5  G5 F5 G5 A5

Interlude: 
Gtr 1:
G|--10-10-10-10-10-10-10--9--9--9-7-7-7-7-7-7-7-
D|--10-10-10-10-10-10-10-10-10-10-7-7-7-7-7-7-7-7-7-7-8-8-8-8-8-8-8-
A|---8--8--8--8--8--8--8--7--7--7-5-5-5-5-5-5-5-7-7-7-8-8-8-8-8-8-8-
E|----------------------------------------------5-5-5-6-6-6-6-6-6-6-
PM|        .  .  .  .  .  .  .  . . . . . . . . . . . . . . . . . . 

Gtr 2:
D|------------------------------------------------------------------
A|----------------------------------------------------7*7*7*7*7*7*7*
E|------------------------------------------------------------------

Gtr 1:
G|------------------------------------------------------------------
D|--10-10-10-10-10-10-10-5-5-5-5-5-5-5-10-10-10-8-8-8-7-7-7-7-7-7-7-
A|--10-10-10-10-10-10-10-5-5-5-5-5-5-5-10-10-10-8-8-8-7-7-7-7-7-7-7-
E|---8--8--8--8--8--8--8-3-3-3-3-3-3-3--8--8--8-6-6-6-5-5-5-5-5-5-5-
PM|  .  .  .  .  .  .  . . . . . . . .  .  .  . . . . . . . . . . .

Gtr 2:
E|----------------------------------------------7*7*7*-
B|--------------------------------------7*-7*-7*-------
G|-----------------------7*7*7*7*7*7*7*----------------
D|---7*-7*-7*-7*-7*-7*-7*------------------------------
A|----------------------------------------------------- Daqui segue o riff do interlude
E|----------------------------------------------------- 

Gtr 1:
G|----------------------------------------------------------------
D|--10-10-10-10-12-12-12-12-12-12-12-12-10-10-10-10-8-8-8-8-8-8-8-
A|--10-10-10-10-12-12-12-12-12-12-12-12-10-10-10-10-8-8-8-8-8-8-8-
E|---8--8--8--8-10-10-10-10-10-10-10-10--8--8--8--8-6-6-6-6-6-6-6-
PM|  .  .  .  .  .  .  .  .  .  .  .  .  .  .  .  . . . . . . . .

G|----------------------------------------------------------|
D|--10-10-10-10-10-10-10-5-5-5-5-5-5-5-10-10-10-10-10-10-10-|
A|--10-10-10-10-10-10-10-5-5-5-5-5-5-5-10-10-10-10-10-10-10-|
E|---8--8--8--8--8--8--8-3-3-3-3-3-3-3--8--8--8--8--8--8--8-|
PM|  .  .  .  .  .  .  . . . . . . . .  .  .  .  .  .  .  .

Gtr 1:
G|--10-10-10-10-10-10-10--9--9--9-7-7-7-7-7-7-7-
D|--10-10-10-10-10-10-10-10-10-10-7-7-7-7-7-7-7-7-7-7-8-8-8-8-8-8-8-
A|---8--8--8--8--8--8--8--7--7--7-5-5-5-5-5-5-5-7-7-7-8-8-8-8-8-8-8-
E|----------------------------------------------5-5-5-6-6-6-6-6-6-6-

G|------------------------------------------------------------------
D|--10-10-10-10-10-10-10-5-5-5-5-5-5-5-10-10-10-8-8-8-7-7-7-7-7-7-7-
A|--10-10-10-10-10-10-10-5-5-5-5-5-5-5-10-10-10-8-8-8-7-7-7-7-7-7-7-
E|---8--8--8--8--8--8--8-3-3-3-3-3-3-3--8--8--8-6-6-6-5-5-5-5-5-5-5-

G|----------------------------------------------------------------
D|--10-10-10-10-12-12-12-12-12-12-12-12-10-10-10-10-8-8-8-8-8-8-8-
A|--10-10-10-10-12-12-12-12-12-12-12-12-10-10-10-10-8-8-8-8-8-8-8-
E|---8--8--8--8-10-10-10-10-10-10-10-10--8--8--8--8-6-6-6-6-6-6-6-

G|----------------------------------------------------------|
D|--10-10-10-10-10-10-10-5-5-5-5-5-5-5-10-10-10-10-10-10-10-|
A|--10-10-10-10-10-10-10-5-5-5-5-5-5-5-10-10-10-10-10-10-10-|
E|---8--8--8--8--8--8--8-3-3-3-3-3-3-3--8--8--8--8--8--8--8-|

Riff de interlude (Gtr 2):
G|-17-14-12-10-12-10-9-7-12-10-9-10-|
D|--x--x--x--x--x--x-x-x--x--x-x--x-|
A|-15-12-10--8-10--8-7-5-10--8-7--8-|   3X
E|----------------------------------|

No último refrão, a base fica nas mesmas notas do interlude. A gtr 2 faz isso:
B|-13--13--13--13--12-11-12-11|
G|---10--10--10--10-----------| 8X
Composição de My Chemical Romance
Colaboración y revision:
  • caue cavalaro
2.429 reproducciones
    • ½ Tono
    • A
    • Bb
    • B
    • C
    • Db
    • D
    • Eb
    • E
    • F
    • F#
    • G
    • Ab
  • Adicionar à lista

    0 comentarios

    Ver todos os comentários

    ¿Conseguiste tocar?

    1 Tocaram 0 Ainda não

    Grave um vídeo tocando Famous Last Words e nos envie!

    00:00 / 00:00
    outros vídeos desta música
    repetir qualidade Automático
    Outros vídeos desta música
    00:00 / 00:00
    Automático
    OK