Cifra Club

I'm Not Okay

My Chemical Romance

Cifrado: Principal (guitarra y guitarra eléctrica)
tono: E
[Intro]
 
E|-----------------------------------------------------------------------------------------|
B|-----------------------------------------------------------------------------------------|
G|--7-7-7-7-7-7-7-7-7-7-7-7-7-7-7-7-7-7-7-7-7----------------------------------------------|
D|--x-x-x-x-x-x-x-x-x-x-x-x-x-x-x-x-x-x-x-x-x----------------------------------------------|
A|--5-5-5-5-5-5-5-5-5-5-5-5-5-5-5-5-5-5-5-5-5----------------------------------------------|
E|-----------------------------------------------------------------------------------------|

D5  B5  E5  A5
 
[Riff 1]

E|-----------------------------------------------------------------------------------------|
B|-15-15-15-15-15-15-15--------------------------------------------------------------------|
G|-x--x--x--x--x--x--x---14-14-14-14-14-14-14-14-12-12-12-12-12-12-12-11-11-11-11-11-11-11-| 2x
D|-12-12-12-12-12-12-12--x--x--x--x--x--x--x--x--x--x--x--x--x--x--x--x--x--x--x--x--x--x--|
A|-----------------------12-12-12-12-12-12-12-12-10-10-10-10-10-10-10-9--9--9--9--9--9--9--|
E|-----------------------------------------------------------------------------------------|

       E5                                    A5
E|---------------------------------------------------------------------------------------------------------------------------------------------|
B|---------------------------------------------------------------------------------------------------------------------------------------------|
G|-12-12-12-12-12-12-12-14-14-14-14-14-14-14-9-9-9-9-9-9-9-12-12-12-12-12-12-12-14-14-14-14-14-14-14-16-16-16-16-16-16-16-18-18-18-18-18-18-18-|
D|-x--x--x--x--x--x--x--x--x--x--x--x--x--x--x-x-x-x-x-x-x-x--x--x--x--x--x--x--x--x--x--x--x--x--x--x--x--x--x--x--x--x--x--x--x--x--x--x--x--|
A|-10-10-10-10-10-10-10-12-12-12-12-12-12-12-7-7-7-7-7-7-7-10-10-10-10-10-10-10-12-12-12-12-12-12-12-14-14-14-14-14-14-14-16-16-16-16-16-16-16-|
E|---------------------------------------------------------------------------------------------------------------------------------------------|

[Riff 2]

    D5                   B5                   E5                   A5
E|--------------------------------------------------------------------------------------|
B|--------------------------------------------------------------------------------------|
G|--77-7-77-7-77-7-77-7-----------------------99-9-99-9-99-9-99-9-----------------------|
D|--77-7-77-7-77-7-77-7--99-9-99-9-99-9-99-9--99-9-99-9-99-9-99-9--77-7-77-7-77-7-77-7--|
A|--55-5-55-5-55-5-55-5--99-9-99-9-99-9-99-9--77-7-77-7-77-7-77-7--77-7-77-7-77-7-77-7--|
E|-----------------------77-7-77-7-77-7-77-7-----------------------55-5-55-5-55-5-55-5--|
 PM  ..   ..   ..   ..    ..   ..   ..   ..    ..   ..   ..   ..    ..   ..   ..   ..    

[Primeira Parte]

D5
Well if you wanted honesty, that's all you had to say
B5
I never want to let you down or have you go, it's better of this way
E5
For all the dirty looks, the photographs your boyfriend took
A5
Remember when you broke your foot from jumping out the second floor?

[Refrão]

I'm not okay

I'm not okay

I'm not okay

You wear me out

[Segunda Parte]

D5
What will take to show it's not life it seems? (I'm not okay)
B5
I told you  time and time again you sing the words but don't know what they mean (I'm not okay)
E5
So be a joke and look, another line without a hook
A5
I held you close as we both shook for the last time take a good hard look!

[Refrão]

I'm not okay

I'm not okay

I'm not okay

You wear me out

( D5  B5  E5  A5 )

E|----------------------------------------------------------------|
B|--10-12b14-12b14-12b14-10-9--10---------------10-12b13-12b13-10-|
G|--------------------------------9--9-7-6-7-9---------------------|
b- 12~-12/14-10~---12-14-15-12-14-15-12-14-15-12-14-15--14b15-
b- 14b15-14b15-14-15-17-15-14-15-14-12~-
E|------------------------------|
B|-12-14-15-12-14-15-14-12-10~--|
G|------------------------------|
 
Composición de My Chemical Romance
Colaboración y revisión:
6.892 vistas
    • ½ Tono
    • A
    • Bb
    • B
    • C
    • Db
    • D
    • Eb
    • E
    • F
    • F#
    • G
    • Ab
  • Agregar a la lista

    0 comentarios

    Ver todos los comentarios

    ¿Lograste tocar?

    15 Tocaron 2 Aún no

    ¡Graba un video tocando I'm Not Okay y envíanoslo!

    00:00 / 00:00
    Outros vídeos desta música
    Repetir Calidad Automático
    Outros vídeos desta música
    00:00 / 00:00
    Automático
    OK