Cifra Club

Bêbado Gera Emprego

Naiara Azevedo

Cifrado: Principal (guitarra y guitarra eléctrica)
tono: B
[Intro] D#m  B9  F#  C#

E|----------------------------------------------------|
B|--------2h4-2---------------------------------------|
G|------3--------3/4-3-3-4/6-4-3------3---------------|
D|----4--------------------------4/6----6-4-----------|
A|--6---------------------------------------6---------|
E|----------------------------------------------------|

D#m        B9         F#     C#
Bebo porque eu perdi alguém 
D#m        B9              F#     C# 
Mas eu nunca fiz mau pra ninguém 
Gm
Cê tá falando mal de mim
B9                       F#        C#
Vou te provar que não é bem assim 
             G#m
Só pra você saber 
                 B9
Se eu largar do álcool 
                       C#         
Olha o estrago que vai ser 

           F#
Se eu não beber 

A Ambev vai fechar 
                         C#
O que vai ser do dono do bar 
                                     D#m
Sem gorjeta o garçom vai entrar em desespero
(D#m     C#    B9)
Bêbado gera emprego 
                   C#                  F#
É da serviço pra serviço pra cantor sertanejo

[Solo] D#m  B9  F#  C#

E|----------------------------------------------------|
B|--------2h4-2---------------------------------------|
G|------3--------3/4-3-3-4/6-4-3------3---------------|
D|----4--------------------------4/6----6-4-----------|
A|--6---------------------------------------6---------|
E|----------------------------------------------------|

G#m
Cê tá falando mal de mim
B9                       F#        C#
Vou te provar que não é bem assim 
             Gm
Só pra você saber 
                 B9
Se eu largar do álcool 
                       C#         
Olha o estrago que vai ser 

           F#
Se eu não beber 

A Ambev vai fechar 
                         C#
O que vai ser do dono do bar 
                                     D#m
Sem gorjeta o garçom vai entrar em desespero
D#m     C#    B9
Bêbado gera emprego 
                   C#                  F#
É da serviço pra serviço pra cantor sertanejo
00:00 / 00:00
Otros videos de esta canción
Repetir
Otros videos de esta canción
Composición de Naiara Azevedo
Colaboración y revisión:
  • Pablo Vinicius
45 vistas
    • ½ Tono
    • A
    • Bb
    • B
    • C
    • Db
    • D
    • Eb
    • E
    • F
    • F#
    • G
    • Ab
  • Agregar a la lista

    0 comentarios

    Ver todos los comentarios

    ¿Lograste tocar?

    0 Tocaron 0 Aún no

    ¡Graba un video tocando Bêbado Gera Emprego y envíanoslo!

    00:00 / 00:00
    OK