Cifra Club

Coração Pede Socorro

Naiara Azevedo

Cifrado: Principal (guitarra y guitarra eléctrica)
tono: G#m
[Intro] C#m  G#m7  F#/A#  B  F#

E|----------------------------------------------------|
B|------4-5-4h5---9-9-9-9-9--7-7--5-4--5/7------------|
G|-/4-6-----------9-9-9-9-9--8-8--6-4--6/8---6-4-6/8--|
D|----------------------------------------------------|
A|----------------------------------------------------|
E|----------------------------------------------------|

E|----------------------------------------------------|
B|-7--5-4--7-7-7-7-7----------------------------------|
G|---------8-8-8-8-8--6-6---4-3/4/3-------------------|
D|-----------------------------------4/6-4~-----------|
A|----------------------------------------------------|
E|----------------------------------------------------|

[Primeira Parte]

         B    F#/A#                   G#m7
Um amor desse era 24 horas lado a lado
E                                          B
Um radar na pele , Aquele sentimento alucinado
     F#/A#             C#m
Coração batia acelerado
                        G#m
Bastava um olhar pra eu entender
                       F#/A#       B
Que era hora de me entregar pra você
                     F#
Palavras não faziam falta mais

[Pré-Refrão]

C#m                         G#m
Ah só de lembrar do seu perfume
                  F#/A#   B
Que arrepio, que cala__frio
                 F#
Que o meu corpo sente
                               E            F#     
Nem que eu queira eu te apago da minha mente

[Refrão]

G#m       E    B                    F#
Ah esse amor, deixou marcas no meu corpo
G#m       E        B                           F#
Ah esse amor , Só de pensar eu grito, eu quase morro

G#m       E    B                    F#
Ah esse amor, deixou marcas no meu corpo
G#m       E        B                           F#
Ah esse amor , Só de pensar eu grito, eu quase morro
       E            F#
Com você meu coração pede socorro

( C#m  G#m7  F#/A#  B )

[Pré-Refrão]

C#m                         G#m
Ah só de lembrar do seu perfume
                  F#/A#   B
Que arrepio, que cala__frio
                 F#
Que o meu corpo sente
                               E            F#     
Nem que eu queira eu te apago da minha mente

[Refrão]

G#m       E    B                    F#
Ah esse amor, deixou marcas no meu corpo
G#m       E        B                           F#
Ah esse amor , Só de pensar eu grito, eu quase morro

G#m       E    B                    F#
Ah esse amor, deixou marcas no meu corpo
G#m       E        B                           F#
Ah esse amor , Só de pensar eu grito, eu quase morro
       E            F#       G#m
Com você meu coração pede socorro
00:00 / 00:00
Otros videos de esta canción
Repetir
Otros videos de esta canción
Composición de Naiara Azevedo / Rafael Quadros / Waléria Leão
Colaboración y revisión:
  • Getúlio Vasconcelos
  • Guilherme Santos
29 vistas
    • ½ Tono
    • Am
    • Bbm
    • Bm
    • Cm
    • C#m
    • Dm
    • Ebm
    • Em
    • Fm
    • F#m
    • Gm
    • G#m
  • Agregar a la lista

    0 comentarios

    Ver todos los comentarios

    ¿Lograste tocar?

    1 Tocaron 0 Aún no

    ¡Graba un video tocando Coração Pede Socorro y envíanoslo!

    00:00 / 00:00
    OK