Cifra Club

Mordida, Beijo e Tapa

Naiara Azevedo

Cifrado: Principal (guitarra y guitarra eléctrica)
tono: E
[Intro]  F#m  A9  E  B9


E|--2/4-4-4-4/2-0----2/4---2/4-4-4-4-4--7/5--2/4-0-0-2-2/4-4-4-4-|
B|----------------2----------------------------------------------|
G|--2/4-4-4-4/2-1----2/4---2/4-4-4-4-4--8/6--2/4-1-1-2-2/4-4-4-4-|
D|----------------2----------------------------------------------|
A|---------------------------------------------------------------|
E|---------------------------------------------------------------|

E|--2-2---------------------------------------------|
B|--------------------------------------------------|
G|--2-2---2p1---------------------------------------|
D|-----------4-2-4----------------------------------|
A|--------------------------------------------------|
E|--------------------------------------------------|

  F#m
Quase que acaba tudo
  A9
Quase que o nosso amor
              E
Escorre pelo ralo
              B9
Ah se eu não falo

  F#m
Que a raiva tem explicação
        A9
Que é quase metade
         E
De um coração apaixonado     

F#m
O que sobra é um terço, é ciúme
     A9                         C#m
E o resto é amor que você não assume
Já que é assim

 F#
Pego minhas roupas
                  A9
Vou juntando os trapos
       Am9
Cê me pega no braço e aí

                        F#m  A9
Eu fiz amor, não fiz a mala
                  E
Uma briguinha de nada
                      B9
Era o que a gente precisava

                        F#m  A9
Eu fiz amor, não fiz a mala
                        E
Descontei toda a nossa raiva
                     B9
Em mordida, beijo e tapa
Eu fiz amor
           F#m  A9  E  B9
Não fiz a mala!
00:00 / 00:00
Otros videos de esta canción
Repetir
Otros videos de esta canción
Composición de Danilo Dávilla / Diego Silveira / Elcio De Carvalho / Junior Pepato / LARI FERREIRA / Nicolas Damasceno / Rafael Borges
Colaboración y revisión:
177 vistas
    • ½ Tono
    • A
    • Bb
    • B
    • C
    • Db
    • D
    • Eb
    • E
    • F
    • F#
    • G
    • Ab
  • Agregar a la lista

    0 comentarios

    Ver todos los comentarios

    ¿Lograste tocar?

    4 Tocaron 0 Aún no

    ¡Graba un video tocando Mordida, Beijo e Tapa y envíanoslo!

    00:00 / 00:00
    OK