Cifra Club

Pegada Que Desgrama

Naiara Azevedo

Cifrado: Principal (guitarra y guitarra eléctrica)
tono: F
[Intro]  F  C  Dm  Bb

E|-1-1-1-1-1/5---5--1-1-1-1-1/5---5---------|
B|------------------------------------------|
G|-2-2-2-2-2/5-5----2-2-2-2-2/5-5-----------|
D|------------------------------------------|
A|------------------------------------------|
E|------------------------------------------|

E|1-1-1-1-1/3--3-3/1-0----------------------|
B|----------------------8-8-8-8/10-8-6-5-5/6|
G|2-2-2-2-2/5--5-5/2-0--9-9-9-9/10-9-7-5-5/7|
D|------------------------------------------|
A|------------------------------------------|
E|------------------------------------------|

E|-------------------------3/5--------------|
B|-8/10---8-8-8/10-8-6-5-3------------------|
G|-9/10---9-9-9/10-9-7-5-3---5/7------------|
D|------------------------------------------|
A|------------------------------------------|
E|------------------------------------------|

[Primeira Parte]

F
  Não quero mais                                       
  Tô vendo que a gente não tá dando certo
C
 Fala demais
                                    Dm
E ainda joga na cara que eu nunca presto
Até que eu tento não ser trouxa
Bb
 Mas o problema é que cê tem, tem

[Pré-Refrão]

             F
Um beijo gostoso que prende
Seu jeito na cama me rende
            C
Um olhar safado que chama
  
[Refrão]

                    Dm
E uma pegada que desgrama
                          Bb
Me diz, como é que não te ama?
             F
Um beijo gostoso que prende
Seu jeito na cama me rende
            C
Um olhar safado que chama
                      Dm
E uma pegada que desgrama
                          Bb
Me diz, como é que não te ama?

( F  C  Dm  Bb )

[Primeira Parte]

F
  Não quero mais                                       
  Tô vendo que a gente não tá dando certo
C
 Fala demais
                                    Dm
E ainda joga na cara que eu nunca presto
Até que eu tento não ser trouxa
Bb
 Mas o problema é que cê tem, tem

[Pré-Refrão]

             F
Um beijo gostoso que prende
Seu jeito na cama me rende
            C
Um olhar safado que chama
      
[Refrão]

                Dm
E uma pegada que desgrama
                          Bb
Me diz, como é que não te ama?
             F
Um beijo gostoso que prende
Seu jeito na cama me rende
            C
Um olhar safado que chama
                      Dm
E uma pegada que desgrama
                          Bb
Me diz, como é que não te ama?

[Final]  F
Composición de Nicolas Damasceno / Rafael Borges / Thiago Rossi
Colaboración y revisión:
  • Arthur Maurer
  • Lucas Kappaun
  • Mateus Dias
821 vistas
    • ½ Tono
    • A
    • Bb
    • B
    • C
    • Db
    • D
    • Eb
    • E
    • F
    • F#
    • G
    • Ab
  • Agregar a la lista

    0 comentarios

    Ver todos los comentarios

    ¿Lograste tocar?

    21 Tocaron 7 Aún no

    ¡Graba un video tocando Pegada Que Desgrama y envíanoslo!

    00:00 / 00:00
    Outros vídeos desta música
    Repetir Calidad Automático
    Outros vídeos desta música
    00:00 / 00:00
    Automático
    OK