Cifra Club

Perfume Importado

Naiara Azevedo

Cifrado: Principal (guitarra y guitarra eléctrica)
tono: G
[Intro]  Em  C

E|-----------------------------------------------------|
B|-8--------8-8-------8--------8-8---------------------|
G|---7-7-7------7-7-7---7-7-7------7-7-7---------------|
D|-----------------------------------------------------|
A|-----------------------------------------------------|
E|-----------------------------------------------------|

E|-----------------------------------------------------|
B|-10--------10-10-------------------------------------|
G|----7-7-7--------7-7---------------------------------|
D|-----------------------------------------------------|
A|-----------------------------------------------------|
E|-----------------------------------------------------|

     G
Começaram a tirar as cadeiras
Estão varrendo debaixo da mesa
   D
O cantor já guardou o violão
                                      Em
Pra lascar minha situação, pedi a saideira
                              Em
O garçom acenando, disse que não
               C
Só ficou o cachorro que tava de olho
            D
No meu espetinho de coração

 C
Tô indo embora a pé
D               Em
 Escorando nos muros
              G
Ou eu bebi demais
Ou sacudiram o mundo
  C
Pra acabar de vez
D
 O trem vai piorar
 Em                        G
Tudo que eu bebi pra esquecer
                              C
Chegar lá em casa eu vou lembrar
         D
Vou lembrar

   G
É hoje que eu entro lá em casa
           D
De luz apagada
Não quero ver nada
              Em
Que lembra você
Mas o que os olhos não vêem
                      C
Está no quarto impregnado
                          D
Maldito dia em que eu te dei
                     G  D
Esse perfume importado

   G
É hoje que eu entro lá em casa
           D
De luz apagada
Não quero ver nada
              Em
Que lembra você
Mas o que os olhos não vêem
                      C
Está no quarto impregnado
                          D
Maldito dia em que eu te dei
                     G
Esse perfume importado

[Passagem]  G  D  Em  C  D

E|-----------------------------------------------------|
B|-8--------8-8-------8--------8-8---------------------|
G|---7-7-7------7-7-7---7-7-7------7-7-7---------------|
D|-----------------------------------------------------|
A|-----------------------------------------------------|
E|-----------------------------------------------------|

E|-----------------------------------------------------|
B|-10--------10-10------10-----------------------------|
G|----7-7-7--------7-7---------------------------------|
D|-----------------------------------------------------|
A|-----------------------------------------------------|
E|-----------------------------------------------------|

 C
Tô indo embora a pé
D               Em
 Escorando nos muros
              G
Ou eu bebi demais
Ou sacudiram o mundo
  C
Pra acabar de vez
D
 O trem vai piorar
 Em                        G
Tudo que eu bebi pra esquecer
                              C
Chegar lá em casa eu vou lembrar
         D
Vou lembrar

   G
É hoje que eu entro lá em casa
           D
De luz apagada
Não quero ver nada
              Em
Que lembra você
Mas o que os olhos não vêem
                      C
Está no quarto impregnado
                          D
Maldito dia em que eu te dei
                     G  D
Esse perfume importado

   G
É hoje que eu entro lá em casa
           D
De luz apagada
Não quero ver nada
              Em
Que lembra você
Mas o que os olhos não vêem
                      C
Está no quarto impregnado
                          D
Maldito dia em que eu te dei
                     G
Esse perfume importado
Composición de Bruno Mandioca / Elvis Elan / Henrique Casttro / Montenegro
Colaboración y revisión:
  • Marcos Paulo
17 vistas
    • ½ Tono
    • A
    • Bb
    • B
    • C
    • Db
    • D
    • Eb
    • E
    • F
    • F#
    • G
    • Ab
  • Agregar a la lista

    0 comentarios

    Ver todos los comentarios

    ¿Lograste tocar?

    1 Tocaron 0 Aún no

    ¡Graba un video tocando Perfume Importado y envíanoslo!

    00:00 / 00:00
    Outros vídeos desta música
    Repetir Calidad Automático
    Outros vídeos desta música
    00:00 / 00:00
    Automático
    OK