Cifra Club

Aprenda

N

Nando Reis

Tablatura: Principal (guitarra)
Tom: F
[Intro] F  Am  Dm
        F  Am  Dm

E|---------------------------------------------------|
B|---------------------------------------------------|
G|-------10-12b14-12b14~-------10-10------10---------|
D|-10h12-----------------10h12-------10h12-----------|
A|---------------------------------------------------|
E|---------------------------------------------------|

E|-------------------8-------------------------------|
B|-13b15r13~-10p8h10---10----------------------------|
G|-----------------------------10--------------------|
D|------------------------10h12----------------------|
A|---------------------------------------------------|
E|---------------------------------------------------|

[Primeira Parte]

F              Am       Dm
  E agora, o que vou fazer?
            Gm                 
Se os seus lábios ainda 
          Gm7             C
Estão molhando os lábios meus?
      Gm             Gm7                 C
E as lágrimas não secaram com o sol que fez?

F               Am            Dm
  E agora como posso te esquecer?
           Gm            Gm7         C
Se o teu cheiro ainda está no travesseiro?
           Gm            Gm7         C
E o seu cabelo está enrolado no meu peito?

[Refrão]

Bb5(9)                        Am
       Espero que o tempo passe
                        Dm
Espero que a semana acabe
                            C
Pra que eu possa te ver de novo
Bb5(9)                      Am
       Espero que o tempo voe
                    Dm
Para que você retorne
                         G
Pra que eu possa te abraçar
         Bb5(9)
E te beijar
      F  Am  Dm
De novo

( F  Am  Dm )

E|---------------------------------------------------|
B|----------------------------------------10---------|
G|-------10-12b14-12b14~-------10-10-10h12--12-------|
D|-10h12-----------------10h12-----------------------|
A|---------------------------------------------------|
E|---------------------------------------------------|

E|-----------10-13b15r13~----------------------------|
B|-13b15r13~-----------------------------------------|
G|---------------------------------------------------|
D|---------------------------------------------------|
A|---------------------------------------------------|
E|---------------------------------------------------|

[Segunda Parte]

F                   Am           Dm
  E agora, como eu passo sem te ver?
          Gm
Se o seu nome está gravado no
      Gm7          C
Meu braço como um selo?
        Gm               Gm7
Nossos nomes que tem o N
        C
Como um elo

F               Am          Dm
  E agora como posso te perder?
          Gm           Gm7
Se o teu corpo ainda guarda o
        C
Meu prazer?
         Gm            Gm7
E o meu corpo está moldado
       C
Com o teu?

[Refrão]

Bb5(9)                        Am
       Espero que o tempo passe
                        Dm
Espero que a semana acabe
                            C
Pra que eu possa te ver de novo
Bb5(9)                      Am
       Espero que o tempo voe
                    Dm
Para que você retorne
                         G
Pra que eu possa te abraçar

Bb5(9)                        Am
       Espero que o tempo passe
                        Dm
Espero que a semana acabe
                            C
Pra que eu possa te ver de novo
Bb5(9)                      Am
       Espero que o tempo voe
                    Dm
Para que você retorne
                         G
Pra que eu possa te abraçar

         Bb5(9)
E te beijar
      F  Am  Dm
De novo

[Solo Final] F  Am  Dm
             F  Am  Dm
             F  Am  Dm

E|---------------------------------------------------|
B|------------------------------------------13b15r13~|
G|-------10-12b14-12b14~-------10-10------10---------|
D|-10h12-----------------10h12-------10h12-----------|
A|---------------------------------------------------|
E|---------------------------------------------------|

E|-------------------8--------10p8-------------------|
B|-13b15r13~-10p8-10---10--10-----10-13b15~-15r13p10-|
G|---------------------------------------------------|
D|---------------------------------------------------|
A|---------------------------------------------------|
E|---------------------------------------------------|

E|----------------------10--15b17--------------------|
B|---------------------------------------------------|
G|-12-12/14-------10-10------------------------------|
D|----------10h12------------------------------------|
A|---------------------------------------------------|
E|---------------------------------------------------|
Compositor Nando Reis
1.678 reproducciones
    • ½ Tom
    • A
    • Bb
    • B
    • C
    • Db
    • D
    • Eb
    • E
    • F
    • F#
    • G
    • Ab
  • Adicionar à lista

    0 comentarios

    Mostrar mais comentários
    00:00 / 00:00
    outros vídeos desta música
    repetir qualidade Automático
    Outros vídeos desta música
    00:00 / 00:00
    Automático
    Capítulos
    • Início
    • Tocando a música
    • Acordes da Introdução e das Estrofes
    • Tocando Introdução e Primeira Parte
    • Ensinando Ritmos da música
    • Ensinando Solo da Introdução
    • Acordes do Refrão
    • Tocando Refrão
    • Ensinando Solo do Refrão
    • Tocando Final
    • Ensinando Solo do Final
    • Encerramento
    OK