Cifra Club

Aprenda

Por Onde Andei

Nando Reis

Tab de bajo: Principal
G--------------------------------------------------------------------------
D------------------------------3-------------------------------------------
A-3------------------------------------------------------------------------
E-----------3--------5-----------------------------------------------------
Desculpe estou um pouco atrasado....

G--------------------------------------------------------------
D----------3---------------------------------------------------
A--2--------------3--------3-----------------------------------
E--------------3-----5--------------------------------------------

Será que eu sei que você mesmo é tudo aquilo que me faltava?... 
 
REFRÃO
G--------------------------------------------------------------
D--------------------------------3-----------------------------
A--3--------2--------------2-----------------------------------
E-----3-------1---3----------------------------------------------


Na parte q fica só a vocalização fica assim
G-----------------------------------------------------------------
D-----------------------------------------------------------------
A-3-------------------3-------------------------------------------
E----3---5---1-----3------5--1---------------------------------------
Composição de Nando Reis
Colaboración y revision:
  • bruno moreira
94 reproducciones

0 comentarios

Ver todos os comentários
00:00 / 00:00
outros vídeos desta música
repetir qualidade Automático
Outros vídeos desta música
00:00 / 00:00
Automático
OK