Cifra Club

L-O-V-E

Nat King Cole

Cifrado: Principal (guitarra y guitarra eléctrica)
Selo Cifra Club: esta cifra foi revisada para atender aos critérios oficiais da nossa Equipe de Qualidade.
tono: G
[Intro] G //// D7 //// G //// ////

[Verse 1]

G    Em              Am      D7
L is for the way you look at me
Am   D7           G
O is for the only one I see
G7             C
V is very, very extraordinary
A7                  D7          A7   D7
E is even more than anyone that you adore and


[Verse 2]

G       Em             Am      D7
Love is all that I can give to you
Am      D7               G
Love is more than just a game for two
G7
Two in love can make it
C                 Cm7
Take my heart and please don't break it
G        D7              G     D7
Love was made for me and you


Picking (Verse 2 Chords):
   G                 Em                  Am              D7
A|-----------------|-----------------|-----------------|-----------------|
E|-3-----------3---|-2-----0---0-----|-2s3---------3---|-2---------------|
C|-----------------|---------3-------|-----------------|-----------------|
G|-----------------|-----------------|-----------------|-----------------|

   Am                D7                  G
A|-----------------|-----------------|-----------------|-----------------|
E|-2-----------0---|-0---------------|-1s2---------0---|-0---------------|
C|-----------------|-------2-1-2-----|-----------------|-----------------|
G|-----------------|-----------------|-----------------|-----------------|

   G7                                    C               Cm7
A|-2-----------2---|-7---2---0-------|-1s2-0---0-------|-----------------|
E|-----------------|-----------3-----|-------------3---|-3---2---0-2-----|
C|-----------------|-----------------|-----------------|-----------------|
G|-----------------|-----------------|-----------------|-----------------|

   G                 D7                G                 D7
A|-----------------|-----------------|-----------------|-----------------|
E|-3-----------3---|-2-----0-2-3s5---|-3---------------|-----------------|
C|-----------------|-----------------|-----------------|-----------------|
G|-----------------|-----------------|-----------------|-----------------|


[Verse 1]

G    Em              Am      D7
L is for the way you look at me
Am   D7           G
O is for the only one I see
G7             C
V is very, very extraordinary
A7                  D7          A7   D7
E is even more than anyone that you adore and


[Verse 2]

G       Em             Am      D7
Love is all that I can give to you
Am      D7               G
Love is more than just a game for two
G7
Two in love can make it
C                 Cm7
Take my heart and please don't break it
G        D7              G
Love was made for me and you

        G        D7              G      G  F#  G
Oh yes, love was made for me and you
Otros videos de esta canción
47.850 exhibiciones
    • ½ Tono
    • A
    • Bb
    • B
    • C
    • Db
    • D
    • Eb
    • E
    • F
    • F#
    • G
    • Ab
  • Agregar a la lista

Afinación de cifrado

Afinador online

    OK