Cifra Club

Jingle Bells

Natal

Cifrado: Fingerstyle (guitarra y guitarra eléctrica)
tono: C
[Intro]

   1   e   2   e   3   e   4   e   
E|------------------------------------------|
B|------------------------------------------|
G|------------------------------------------|
D|------------------------------------------|
A|-------------------------0---2------------|
E|---------------------3--------------------|

[Primeira Parte]

[Parte 1 De 8]
   1   e   2   e   3   e   4   e   
E|-0---0---0-------0---0---0----------------|
B|------------------------------------------|
G|------------------------------------------|
D|-----2-------2-------2-------2------------|
A|-3---------------3------------------------|
E|---------3---------------3----------------|

[Parte 2 De 8]
   1   e   2   e   3   e   4   e   
E|-0---3-----------0------------------------|
B|---------1---3----------------------------|
G|------------------------------------------|
D|-----2-------2-------2-------2------------|
A|-3---------------3------------------------|
E|---------3---------------3----------------|

[Parte 3 De 8]
   1   e   2   e   3   e   4   e   
E|-1---1---1-------1---0-0------------------|
B|------------------------------------------|
G|------------------------------------------|
D|-----3-------3-------2-------2------------|
A|-----------------3------------------------|
E|-1-------1---------------3----------------|

[Parte 4 De 8]
   1   e   2   e   3   e   4   e   
E|------------------------------------------|
B|-5---3---3---5---3------------------------|
G|------------------------------------------|
D|-----5-------5-------5--------------------|
A|-------------------------0---2------------|
E|-3-------3-------3------------------------|

Parte 4 de 8 - Variação
   1   e   2   e   3   e   4   e   
E|-------------------------3\---------------|
B|-5---3---3---5---3-------3\---------------|
G|-------------------------4\---------------|
D|-----5-------5-------5--------------------|
A|------------------------------------------|
E|-3-------3-------3-------3\---------------|

[Parte 5 De 8]
   1   e   2   e   3   e   4   e   
E|-0---0---0-------0---0-0------------------|
B|------------------------------------------|
G|------------------------------------------|
D|-----2-------0-------2-------0------------|
A|-3-------2-------0-------2----------------|
E|------------------------------------------|

[Parte 6 De 8]
   1   e   2   e   3   e   4   e   
E|-0---3---------0--------------------------|
B|---------1---3----------------------------|
G|------------------------------------------|
D|-----2-------2-------2-------2------------|
A|-3---------------3------------------------|
E|---------3---------------3----------------|

[Parte 7 De 8]
   1   e   2   e   3   e   4   e   
E|-1---1---1-------1---0-0------------------|
B|------------------------------------------|
G|------------------------------------------|
D|-----3-------3-------2-------2------------|
A|-----------------3------------------------|
E|-1-------1---------------3----------------|

[Parte 8 De 8]
   1   e   2   e   3   e   4   e   
E|-3---3------------------------------------|
B|---------6---3---1------------------------|
G|------------------------------------------|
D|-----5-------5-------2-------2------------|
A|-----------------3------------------------|
E|-3-------3---------------3----------------|

Parte 8 de 8 – Variação Final
   1   e   2   e   3   e   4   e   1
E|-3-------3--------------------------------|
B|-3-------3-------6-------3-------1--------|
G|-4-------4-------4-------4-------0--------|
D|-----5-------5-------5-------5---2--------|
A|---------------------------------3--------|
E|-3-------3-------3-------3----------------|

[Segunda Parte]

[Parte 1 De 8]
     1   e   2   e   3   e   4   e   
E|-------0----------------------------------|
B|-----------3---1--------------------------|
G|-0-----------------0----------------------|
D|-------2-------2-------2-------2----------|
A|---3---------------3----------------------|
E|-----------3---------------3--------------|

[Parte 2 De 8]
     1   e   2   e   3   e   4   e   
E|-0-----0----------------------------------|
B|-----------3---1--------------------------|
G|-------------------2----------------------|
D|-------2-------2-------3-------3----------|
A|---3--------------------------------------|
E|-----------3-------1-------1--------------|
 
[Parte 3 De 8]
     1   e   2   e   3   e   4   e   
E|-1-----1---0--------/3---------3----------|
B|---------------3----/3--------------------|
G|-------------------2/4--------------------|
D|-------3-------3-------5-------5----------|
A|------------------------------------------|
E|---1-------1-------3-------3--------------|

[Parte 4 De 8]
   1   e   2   e   3   e   4   e   
E|-5---3------------------------------------|
B|---------3---4---5------------------------|
G|-4---4------------------------------------|
D|-----5---3---4---5---5-------5------------|
A|-----------------3------------------------|
E|-3-------3---------------3----------------|

[Parte 5 De 8]
     1   e   2   e   3   e   4   e   
E|-------0----------------------------------|
B|-----------3---1--------------------------|
G|-0-----------------0----------------------|
D|-------2-------2-------2-------2----------|
A|---3---------------3----------------------|
E|-----------3---------------3--------------|

[Parte 6 De 8]
     1   e   2   e   3   e   4   e   
E|-0-----0----------------------------------|
B|-----------3---1--------------------------|
G|-------------------2----------------------|
D|-------2-------2-------3-------3----------|
A|---3--------------------------------------|
E|-----------3-------1-------1--------------|
 
[Parte 7 De 8]
     1   e   2   e   3   e   4   e   
E|-1-----1---0--------/3-3---3---3----------|
B|---------------3----/3-3---3---3----------|
G|-------------------2/4-4---4---4----------|
D|-------3-------3-------5-------5----------|
A|------------------------------------------|
E|---1-------1-------3-------3--------------|

[Parte 8 De 8]
   1   e   2   e   3   e   4   e   
E|-5---3------------------------------------|
B|---------6---3---1------------------------|
G|-4---4---4---4---0------------------------|
D|-----5---5---5-------2-------2------------|
A|-----------------3------------------------|
E|-3-------3---------------3----------------|
Composición de James Lord Pierpont
Colaboración y revisión:
  • Lucas Kappaun
12 vistas
    • ½ Tono
    • A
    • Bb
    • B
    • C
    • Db
    • D
    • Eb
    • E
    • F
    • F#
    • G
    • Ab
  • Agregar a la lista

    0 comentarios

    Ver todos los comentarios

    ¿Lograste tocar?

    0 Tocaron 0 Aún no

    ¡Graba un video tocando Jingle Bells y envíanoslo!

    00:00 / 00:00
    Outros vídeos desta música
    Repetir Calidad Automático
    Outros vídeos desta música
    00:00 / 00:00
    Automático
    Capítulos
    • Tocando a Música
    • Apresentação/Equipamentos
    • Acordes da Música
    • Ensinando Técnica Polegar Percussivo
    • Ensinando Técnica Boom-Chick
    • Tocando Primeira Parte
    • Ensinando Primeira Parte - Parte 1 de 8
    • Ensinando Primeira Parte - Parte 2 de 8
    • Ensinando Primeira Parte - Parte 3 de 8
    • Ensinando Primeira Parte - Parte 4 de 8
    • Ensinando Primeira Parte - Parte 5 de 8
    • Ensinando Primeira Parte - Parte 6 de 8
    • Ensinando Primeira Parte - Parte 7 de 8
    • Ensinando Primeira Parte - Parte 8 de 8
    • Ensinando Detalhe da Introdução
    • Ensinando Novo Acorde
    • Tocando Segunda Parte
    • Ensinando Segunda Parte - Parte 1 de 8
    • Ensinando Segunda Parte - Parte 2 de 8
    • Ensinando Segunda Parte - Parte 3 de 8
    • Ensinando Segunda Parte - Parte 4 de 8
    • Ensinando Segunda Parte - Parte 5 de 8
    • Ensinando Segunda Parte - Parte 6 de 8
    • Ensinando Segunda Parte - Parte 7 de 8
    • Ensinando Segunda Parte - Parte 8 de 8
    • Encerramento
    OK