Cifra Club

Aprenda

Mix de Natal

Natal

Tablatura: Principal (guitarra)
tono: G
E|-------------------------------------------------|
B|-10----------------------------------------------|
G|----12-11-9----9-11-----9-11-12-9-11--9----------| (2x)
D|------------12------12------------------12-11-12-|
A|-------------------------------------------------|
E|-------------------------------------------------|
E|----------------------------------------------------|
B|--------------------------------------------------1-|
G|-2-2-2--2-2-2--2-5-----2--3-3-3--2-2-2--0-2-0-2-0---|
D|-------------------3-5------------------------------|
A|----------------------------------------------------|
E|----------------------------------------------------|

E|--------------------------------------------------|
B|----------------------------------------1-1-------|
G|-2-2-2--2-2-2--2-5-----2--3-3-3--2-2-2------3-0---|
D|-------------------3-5--------------------------3-|
A|--------------------------------------------------|
E|--------------------------------------------------|

E|-----------------------------------------------------|
B|-----------------------------------------------------|
G|---2------------2------------3-2---5-5---5-7-5-------|
D|-----5-3----------5-3------------5-------------3-5-7-|
A|-3-------3-3--3-------5-5--5-------------------------|
E|-----------------------------------------------------|

E|-----------------------------------------------------|
B|-------------------------------------------3---------|
G|---2------------2------------3-2---5-5---5---5-3-0---|
D|-----5-3----------5-3------------5-----------------3-|
A|-3-------3-3--3-------5-5--5-------------------------|
E|-----------------------------------------------------|
E|-------------------------------------|
B|-------------------------------------|
G|---------------------2-2-4-2---------|
D|---5-5-7-5-4-2-2---2---------5-4-----|
A|-5-------------------------------5-5-|
E|-------------------------------------|

E|-------------------------------------|
B|-------------------------------------|
G|-4-4-5-4-2-0-------------------------|
D|-------------2----------7--4-5-------|
A|------------------5-5-7--------------|
E|-------------------------------------|

Colaboración y revision:
  • Thyerrí Cruz
67 reproducciones
    • ½ Tono
    • A
    • Bb
    • B
    • C
    • Db
    • D
    • Eb
    • E
    • F
    • F#
    • G
    • Ab
  • Adicionar à lista

    0 comentarios

    Ver todos os comentários

    ¿Conseguiste tocar?

    1 Tocaram 0 Ainda não

    Grave um vídeo tocando Mix de Natal e nos envie!

    00:00 / 00:00
    outros vídeos desta música
    repetir qualidade Automático
    Outros vídeos desta música
    00:00 / 00:00
    Automático
    OK