Cifra Club

Noite Feliz

Natal

Cifrado: Aula-guitarra (guitarra y guitarra eléctrica)
tono: A
   A          
E|-0----2--0-------------0----2--0---------------------|
B|-2----3--2----2--------2----3--2----2----------------|
G|--------------2---------------------2----------------|
D|-----------------------------------------------------|
A|-0------------0--------0------------0----------------|
E|-----------------------------------------------------|

   E                     D            A
E|-7-------7----4--------5-------5----0----------------|
B|-9-------9----5--------7-------7----2----------------|
G|-----------------------------------------------------|
D|-----------------------0-------0---------------------|
A|------------------------------------0----------------|
E|-0------------0--------------------------------------|

   D                         A
E|-2-------2----5------4--2--0----2--0-----------------|
B|-3-------3----7------5--3--2----3--2--2--------------|
G|--------------------------------------2--------------|
D|-0------------0--------------------------------------|
A|---------------------------0----------0--------------|
E|-----------------------------------------------------|

   D                         A
E|-2-------2----5------4--2--0----2--0-----------------|
B|-3-------3----7------5--3--2----3--2--2--------------|
G|--------------------------------------2--------------|
D|-0------------0--------------------------------------|
A|---------------------------0----------0--------------|
E|-----------------------------------------------------|

   E                         D          A
E|-7-------7----10-----7--4--5----------9--------------|
B|-9-------9----12-----9--5--7---------10--------------|
G|-----------------------------------------------------|
D|---------------------------0-------------------------|
A|--------------------------------------0--------------|
E|-0-------------0-------------------------------------|

                  E               A
E|-5----0---------0------------------------------------|
B|-7----2----2----2---------3--0-----------------------|
G|-----------2--------------4--2--2--------------------|
D|--------------------------------2--------------------|
A|--------------------------------0--------------------|
E|----------------0------------------------------------|
Composición de Franz Gruber / Joseph Mohr
Colaboración y revisión:
  • Vinícius Dias
  • Thiago Almeida
40 vistas
    • ½ Tono
    • A
    • Bb
    • B
    • C
    • Db
    • D
    • Eb
    • E
    • F
    • F#
    • G
    • Ab
  • Agregar a la lista

    0 comentarios

    Ver todos los comentarios
    00:00 / 00:00
    Outros vídeos desta música
    Repetir Calidad Automático
    Outros vídeos desta música
    00:00 / 00:00
    Automático
    Capítulos
    • Apresentação
    • Tocando a Música
    • Dicas da Música
    • Ensinando Primeira Parte
    • Ensinando Segunda Parte
    • Ensinando Terceira Parte
    • Ensinando Quarta Parte
    • Encerramento
    OK